ISO-10303-21;
HEADER;
FILE_DESCRIPTION (( 'STEP AP203' ),
    '1' );
FILE_NAME ('32484.step',
    '2021-11-12T07:47:30',
    ( '' ),
    ( '' ),
    'SwSTEP 2.0',
    'SolidWorks 2019',
    '' );
FILE_SCHEMA (( 'CONFIG_CONTROL_DESIGN' ));
ENDSEC;

DATA;
#1 = ORIENTED_EDGE ( 'NONE', *, *, #160, .F. ) ;
#2 = CALENDAR_DATE ( 2021, 12, 11 ) ;
#3 = PRODUCT_DEFINITION_FORMATION_WITH_SPECIFIED_SOURCE ( 'ANY', '', #87, .NOT_KNOWN. ) ;
#4 = CYLINDRICAL_SURFACE ( 'NONE', #154, 1.499999999999999556 ) ;
#5 = DIRECTION ( 'NONE',  ( 0.0000000000000000000, 1.000000000000000000, 0.0000000000000000000 ) ) ;
#6 = DIRECTION ( 'NONE',  ( -3.491481338843133355E-15, 1.224646799147353207E-16, -1.000000000000000000 ) ) ;
#7 = DIRECTION ( 'NONE',  ( -3.491481338843133355E-15, 1.224646799147353207E-16, -1.000000000000000000 ) ) ;
#8 = DIRECTION ( 'NONE',  ( 0.0000000000000000000, 1.000000000000000000, 0.0000000000000000000 ) ) ;
#9 = PERSON_AND_ORGANIZATION_ROLE ( 'creator' ) ;
#10 = CC_DESIGN_PERSON_AND_ORGANIZATION_ASSIGNMENT ( #79, #9, ( #115 ) ) ;
#11 = AXIS2_PLACEMENT_3D ( 'NONE', #197, #42, #43 ) ;
#12 = DESIGN_CONTEXT ( 'detailed design', #122, 'design' ) ;
#13 =( NAMED_UNIT ( * ) SI_UNIT ( $, .STERADIAN. ) SOLID_ANGLE_UNIT ( ) );
#14 = MANIFOLD_SOLID_BREP ( 'Corps-Déplacer/Copier1[1]', #94 ) ;
#15 =( LENGTH_UNIT ( ) NAMED_UNIT ( * ) SI_UNIT ( .MILLI., .METRE. ) );
#16 = PERSON_AND_ORGANIZATION ( #222, #85 ) ;
#17 = CARTESIAN_POINT ( 'NONE',  ( 4.888073874380386066E-14, 1.499999999999997780, 13.99999999999999822 ) ) ;
#18 = PRODUCT_DEFINITION_SHAPE ( 'NONE', 'NONE',  #115 ) ;
#19 = ADVANCED_FACE ( 'NONE', ( #196 ), #131, .T. ) ;
#20 = ORIENTED_EDGE ( 'NONE', *, *, #205, .T. ) ;
#21 = SHAPE_DEFINITION_REPRESENTATION ( #18, #130 ) ;
#22 = ADVANCED_FACE ( 'NONE', ( #72 ), #167, .T. ) ;
#23 = CARTESIAN_POINT ( 'NONE',  ( 4.888073874380386066E-14, -1.714505518806294441E-15, 13.99999999999999822 ) ) ;
#24 = AXIS2_PLACEMENT_3D ( 'NONE', #155, #31, #116 ) ;
#25 = CC_DESIGN_APPROVAL ( #35, ( #3 ) ) ;
#26 = DIRECTION ( 'NONE',  ( 4.275831445896958607E-31, 1.000000000000000000, 1.224646799147353207E-16 ) ) ;
#27 = DIRECTION ( 'NONE',  ( 3.491481338843133355E-15, -1.224646799147353207E-16, 1.000000000000000000 ) ) ;
#28 = CARTESIAN_POINT ( 'NONE',  ( 1.735266225405037467E-13, -6.086494591762345225E-15, 49.70000000000000284 ) ) ;
#29 = DIRECTION ( 'NONE',  ( 0.0000000000000000000, 1.000000000000000000, 0.0000000000000000000 ) ) ;
#30 = UNCERTAINTY_MEASURE_WITH_UNIT (LENGTH_MEASURE( 1.000000000000000082E-05 ), #15, 'distance_accuracy_value', 'NONE');
#31 = DIRECTION ( 'NONE',  ( 0.0000000000000000000, 0.0000000000000000000, 1.000000000000000000 ) ) ;
#32 = PERSON_AND_ORGANIZATION ( #222, #85 ) ;
#33 = AXIS2_PLACEMENT_3D ( 'NONE', #28, #199, #8 ) ;
#34 = CALENDAR_DATE ( 2021, 12, 11 ) ;
#35 = APPROVAL ( #202, 'UNSPECIFIED' ) ;
#36 = CC_DESIGN_APPROVAL ( #91, ( #191 ) ) ;
#37 = COORDINATED_UNIVERSAL_TIME_OFFSET ( 1, 0, .AHEAD. ) ;
#38 = AXIS2_PLACEMENT_3D ( 'NONE', #148, #7, #5 ) ;
#39 = DIRECTION ( 'NONE',  ( 0.0000000000000000000, 1.000000000000000000, 0.0000000000000000000 ) ) ;
#40 = AXIS2_PLACEMENT_3D ( 'NONE', #111, #92, #165 ) ;
#41 = FACE_BOUND ( 'NONE', #207, .T. ) ;
#42 = DIRECTION ( 'NONE',  ( -3.491481338843133355E-15, 1.224646799147353207E-16, -1.000000000000000000 ) ) ;
#43 = DIRECTION ( 'NONE',  ( 4.275831445896958607E-31, 1.000000000000000000, 1.224646799147353207E-16 ) ) ;
#44 = CONICAL_SURFACE ( 'NONE', #157, 1.349999999999999645, 0.7853981633974482790 ) ;
#45 = FACE_BOUND ( 'NONE', #180, .T. ) ;
#46 =( NAMED_UNIT ( * ) PLANE_ANGLE_UNIT ( ) SI_UNIT ( $, .RADIAN. ) );
#47 = VERTEX_POINT ( 'NONE', #137 ) ;
#48 = CC_DESIGN_SECURITY_CLASSIFICATION ( #191, ( #3 ) ) ;
#49 = APPROVAL_ROLE ( '' ) ;
#50 = EDGE_CURVE ( 'NONE', #51, #51, #216, .T. ) ;
#51 = VERTEX_POINT ( 'NONE', #103 ) ;
#52 = EDGE_LOOP ( 'NONE', ( #1 ) ) ;
#53 = APPROVAL_PERSON_ORGANIZATION ( #63, #35, #49 ) ;
#54 = ORIENTED_EDGE ( 'NONE', *, *, #194, .F. ) ;
#55 = COORDINATED_UNIVERSAL_TIME_OFFSET ( 1, 0, .AHEAD. ) ;
#56 = FACE_OUTER_BOUND ( 'NONE', #105, .T. ) ;
#57 = ADVANCED_FACE ( 'NONE', ( #153, #45 ), #44, .T. ) ;
#58 = LOCAL_TIME ( 8, 47, 30.00000000000000000, #186 ) ;
#59 = FACE_OUTER_BOUND ( 'NONE', #161, .T. ) ;
#60 = DIRECTION ( 'NONE',  ( -3.491481338843133355E-15, 1.224646799147353207E-16, -1.000000000000000000 ) ) ;
#61 = ADVANCED_FACE ( 'NONE', ( #56, #164 ), #4, .T. ) ;
#62 = CYLINDRICAL_SURFACE ( 'NONE', #11, 1.499999999999998224 ) ;
#63 = PERSON_AND_ORGANIZATION ( #222, #85 ) ;
#64 = DATE_TIME_ROLE ( 'creation_date' ) ;
#65 = ORIENTED_EDGE ( 'NONE', *, *, #125, .T. ) ;
#66 = COORDINATED_UNIVERSAL_TIME_OFFSET ( 1, 0, .AHEAD. ) ;
#67 = CARTESIAN_POINT ( 'NONE',  ( 1.745740669421566678E-13, 1.199999999999996181, 50.00000000000000000 ) ) ;
#68 = CIRCLE ( 'NONE', #139, 1.499999999999999556 ) ;
#69 = CALENDAR_DATE ( 2021, 12, 11 ) ;
#70 = EDGE_LOOP ( 'NONE', ( #146 ) ) ;
#71 = EDGE_LOOP ( 'NONE', ( #86 ) ) ;
#72 = FACE_OUTER_BOUND ( 'NONE', #71, .T. ) ;
#73 = AXIS2_PLACEMENT_3D ( 'NONE', #134, #108, #179 ) ;
#74 = DIRECTION ( 'NONE',  ( -3.491481338843133355E-15, 1.224646799147353207E-16, -1.000000000000000000 ) ) ;
#75 = DIRECTION ( 'NONE',  ( 4.493836536903551492E-31, 1.000000000000000000, 1.264902534566422168E-16 ) ) ;
#76 = ORIENTED_EDGE ( 'NONE', *, *, #151, .T. ) ;
#77 = CALENDAR_DATE ( 2021, 12, 11 ) ;
#78 = CONICAL_SURFACE ( 'NONE', #33, 1.499999999999996891, 0.7853981633974367327 ) ;
#79 = PERSON_AND_ORGANIZATION ( #222, #85 ) ;
#80 = APPROVAL_DATE_TIME ( #98, #178 ) ;
#81 = CIRCLE ( 'NONE', #206, 1.349999999999999645 ) ;
#82 = PERSON_AND_ORGANIZATION_ROLE ( 'design_owner' ) ;
#83 = PRODUCT_RELATED_PRODUCT_CATEGORY ( 'detail', '', ( #87 ) ) ;
#84 = DATE_AND_TIME ( #2, #135 ) ;
#85 = ORGANIZATION ( 'UNSPECIFIED', 'UNSPECIFIED', '' ) ;
#86 = ORIENTED_EDGE ( 'NONE', *, *, #194, .T. ) ;
#87 = PRODUCT ( '32484', '32484', '', ( #217 ) ) ;
#88 = SECURITY_CLASSIFICATION_LEVEL ( 'unclassified' ) ;
#89 = AXIS2_PLACEMENT_3D ( 'NONE', #126, #27, #163 ) ;
#90 = FACE_OUTER_BOUND ( 'NONE', #144, .T. ) ;
#91 = APPROVAL ( #223, 'UNSPECIFIED' ) ;
#92 = DIRECTION ( 'NONE',  ( -3.491481338843133355E-15, 1.224646799147353207E-16, -1.000000000000000000 ) ) ;
#93 = CARTESIAN_POINT ( 'NONE',  ( 0.0000000000000000000, 0.0000000000000000000, 0.0000000000000000000 ) ) ;
#94 = CLOSED_SHELL ( 'NONE', ( #171, #208, #132, #210 ) ) ;
#95 = FACE_OUTER_BOUND ( 'NONE', #107, .T. ) ;
#96 = CARTESIAN_POINT ( 'NONE',  ( 5.237222008264693130E-16, -1.836970198721027284E-17, 0.1499999999999998002 ) ) ;
#97 = APPROVAL_STATUS ( 'not_yet_approved' ) ;
#98 = DATE_AND_TIME ( #204, #113 ) ;
#99 = AXIS2_PLACEMENT_3D ( 'NONE', #23, #74, #150 ) ;
#100 = VERTEX_POINT ( 'NONE', #67 ) ;
#101 = APPLICATION_PROTOCOL_DEFINITION ( 'international standard', 'config_control_design', 1994, #122 ) ;
#102 = ORIENTED_EDGE ( 'NONE', *, *, #125, .F. ) ;
#103 = CARTESIAN_POINT ( 'NONE',  ( 4.888073874380386066E-14, 1.499999999999997780, 13.99999999999999822 ) ) ;
#104 = CC_DESIGN_APPROVAL ( #178, ( #115 ) ) ;
#105 = EDGE_LOOP ( 'NONE', ( #187 ) ) ;
#106 = CC_DESIGN_DATE_AND_TIME_ASSIGNMENT ( #121, #177, ( #191 ) ) ;
#107 = EDGE_LOOP ( 'NONE', ( #102 ) ) ;
#108 = DIRECTION ( 'NONE',  ( 3.491481338843133355E-15, -1.224646799147353207E-16, 1.000000000000000000 ) ) ;
#109 = CARTESIAN_POINT ( 'NONE',  ( -5.772372451960892980E-31, 2.024675706593507223E-32, -1.653273178848926374E-16 ) ) ;
#110 = APPLICATION_CONTEXT ( 'configuration controlled 3d designs of mechanical parts and assemblies' ) ;
#111 = CARTESIAN_POINT ( 'NONE',  ( -2.886186225980446490E-31, 1.012337853296753612E-32, -8.266365894244631868E-17 ) ) ;
#112 = CC_DESIGN_DATE_AND_TIME_ASSIGNMENT ( #117, #64, ( #115 ) ) ;
#113 = LOCAL_TIME ( 8, 47, 30.00000000000000000, #169 ) ;
#114 = FACE_OUTER_BOUND ( 'NONE', #70, .T. ) ;
#115 = PRODUCT_DEFINITION ( 'UNKNOWN', '', #3, #12 ) ;
#116 = DIRECTION ( 'NONE',  ( 1.000000000000000000, 0.0000000000000000000, 0.0000000000000000000 ) ) ;
#117 = DATE_AND_TIME ( #77, #142 ) ;
#118 = EDGE_LOOP ( 'NONE', ( #20 ) ) ;
#119 = VERTEX_POINT ( 'NONE', #138 ) ;
#120 = APPROVAL_DATE_TIME ( #84, #91 ) ;
#121 = DATE_AND_TIME ( #69, #128 ) ;
#122 = APPLICATION_CONTEXT ( 'configuration controlled 3d designs of mechanical parts and assemblies' ) ;
#123 = EDGE_LOOP ( 'NONE', ( #124 ) ) ;
#124 = ORIENTED_EDGE ( 'NONE', *, *, #160, .T. ) ;
#125 = EDGE_CURVE ( 'NONE', #100, #100, #183, .T. ) ;
#126 = CARTESIAN_POINT ( 'NONE',  ( 4.888073874380386066E-14, 1.124819836996390332E-32, 13.99999999999999822 ) ) ;
#127 = AXIS2_PLACEMENT_3D ( 'NONE', #147, #193, #39 ) ;
#128 = LOCAL_TIME ( 8, 47, 30.00000000000000000, #55 ) ;
#129 = DIRECTION ( 'NONE',  ( -3.491481338843133355E-15, 1.224646799147353207E-16, -1.000000000000000000 ) ) ;
#130 = ADVANCED_BREP_SHAPE_REPRESENTATION ( '32484', ( #14, #174, #24 ), #209 ) ;
#131 = PLANE ( 'NONE',  #89 ) ;
#132 = ADVANCED_FACE ( 'NONE', ( #41, #114 ), #78, .T. ) ;
#133 = DIRECTION ( 'NONE',  ( 4.275831445896958607E-31, 1.000000000000000000, 1.224646799147353207E-16 ) ) ;
#134 = CARTESIAN_POINT ( 'NONE',  ( 4.888073874380386066E-14, 1.124819836996390332E-32, 13.99999999999999822 ) ) ;
#135 = LOCAL_TIME ( 8, 47, 30.00000000000000000, #37 ) ;
#136 = CC_DESIGN_PERSON_AND_ORGANIZATION_ASSIGNMENT ( #32, #82, ( #87 ) ) ;
#137 = CARTESIAN_POINT ( 'NONE',  ( 1.735266225405037467E-13, 1.499999999999990896, 49.70000000000000284 ) ) ;
#138 = CARTESIAN_POINT ( 'NONE',  ( 5.237222008264699047E-16, 1.499999999999999556, 0.1499999999999999944 ) ) ;
#139 = AXIS2_PLACEMENT_3D ( 'NONE', #96, #198, #75 ) ;
#140 = APPROVAL_PERSON_ORGANIZATION ( #143, #91, #192 ) ;
#141 = PERSON_AND_ORGANIZATION_ROLE ( 'design_supplier' ) ;
#142 = LOCAL_TIME ( 8, 47, 30.00000000000000000, #66 ) ;
#143 = PERSON_AND_ORGANIZATION ( #222, #85 ) ;
#144 = EDGE_LOOP ( 'NONE', ( #203 ) ) ;
#145 = PERSON_AND_ORGANIZATION ( #222, #85 ) ;
#146 = ORIENTED_EDGE ( 'NONE', *, *, #151, .F. ) ;
#147 = CARTESIAN_POINT ( 'NONE',  ( 1.745740669421566678E-13, -6.123233995736766085E-15, 50.00000000000000000 ) ) ;
#148 = CARTESIAN_POINT ( 'NONE',  ( 4.888073874380386066E-14, -1.714505518806294441E-15, 13.99999999999999822 ) ) ;
#149 = APPROVAL_PERSON_ORGANIZATION ( #200, #178, #219 ) ;
#150 = DIRECTION ( 'NONE',  ( 0.0000000000000000000, 1.000000000000000000, 0.0000000000000000000 ) ) ;
#151 = EDGE_CURVE ( 'NONE', #47, #47, #190, .T. ) ;
#152 = PLANE ( 'NONE',  #73 ) ;
#153 = FACE_OUTER_BOUND ( 'NONE', #123, .T. ) ;
#154 = AXIS2_PLACEMENT_3D ( 'NONE', #93, #182, #181 ) ;
#155 = CARTESIAN_POINT ( 'NONE',  ( 0.0000000000000000000, 0.0000000000000000000, 0.0000000000000000000 ) ) ;
#156 = APPLICATION_PROTOCOL_DEFINITION ( 'international standard', 'config_control_design', 1994, #110 ) ;
#157 = AXIS2_PLACEMENT_3D ( 'NONE', #184, #212, #213 ) ;
#158 = CC_DESIGN_PERSON_AND_ORGANIZATION_ASSIGNMENT ( #220, #141, ( #3 ) ) ;
#159 = APPROVAL_DATE_TIME ( #172, #35 ) ;
#160 = EDGE_CURVE ( 'NONE', #119, #119, #68, .T. ) ;
#161 = EDGE_LOOP ( 'NONE', ( #76 ) ) ;
#162 = CLOSED_SHELL ( 'NONE', ( #22, #57, #61, #19 ) ) ;
#163 = DIRECTION ( 'NONE',  ( -4.275831445896958607E-31, -1.000000000000000000, -1.224646799147353207E-16 ) ) ;
#164 = FACE_OUTER_BOUND ( 'NONE', #52, .T. ) ;
#165 = DIRECTION ( 'NONE',  ( 4.275831445896958607E-31, 1.000000000000000000, 1.224646799147353207E-16 ) ) ;
#166 = PLANE ( 'NONE',  #185 ) ;
#167 = PLANE ( 'NONE',  #40 ) ;
#168 = CC_DESIGN_PERSON_AND_ORGANIZATION_ASSIGNMENT ( #145, #188, ( #191 ) ) ;
#169 = COORDINATED_UNIVERSAL_TIME_OFFSET ( 1, 0, .AHEAD. ) ;
#170 = CARTESIAN_POINT ( 'NONE',  ( 0.0000000000000000000, 1.349999999999999645, 0.0000000000000000000 ) ) ;
#171 = ADVANCED_FACE ( 'NONE', ( #215 ), #152, .F. ) ;
#172 = DATE_AND_TIME ( #34, #58 ) ;
#173 = VERTEX_POINT ( 'NONE', #170 ) ;
#174 = MANIFOLD_SOLID_BREP ( 'Corps-Déplacer/Copier1[2]', #162 ) ;
#175 = EDGE_LOOP ( 'NONE', ( #189 ) ) ;
#176 = AXIS2_PLACEMENT_3D ( 'NONE', #211, #129, #29 ) ;
#177 = DATE_TIME_ROLE ( 'classification_date' ) ;
#178 = APPROVAL ( #97, 'UNSPECIFIED' ) ;
#179 = DIRECTION ( 'NONE',  ( -4.275831445896958607E-31, -1.000000000000000000, -1.224646799147353207E-16 ) ) ;
#180 = EDGE_LOOP ( 'NONE', ( #54 ) ) ;
#181 = DIRECTION ( 'NONE',  ( 4.275831445896958607E-31, 1.000000000000000000, 1.224646799147353207E-16 ) ) ;
#182 = DIRECTION ( 'NONE',  ( -3.491481338843133355E-15, 1.224646799147353207E-16, -1.000000000000000000 ) ) ;
#183 = CIRCLE ( 'NONE', #127, 1.200000000000002176 ) ;
#184 = CARTESIAN_POINT ( 'NONE',  ( -5.772372451960892980E-31, 2.024675706593507223E-32, -1.653273178848926374E-16 ) ) ;
#185 = AXIS2_PLACEMENT_3D ( 'NONE', #214, #60, #133 ) ;
#186 = COORDINATED_UNIVERSAL_TIME_OFFSET ( 1, 0, .AHEAD. ) ;
#187 = ORIENTED_EDGE ( 'NONE', *, *, #50, .T. ) ;
#188 = PERSON_AND_ORGANIZATION_ROLE ( 'classification_officer' ) ;
#189 = ORIENTED_EDGE ( 'NONE', *, *, #50, .F. ) ;
#190 = CIRCLE ( 'NONE', #176, 1.499999999999996891 ) ;
#191 = SECURITY_CLASSIFICATION ( '', '', #88 ) ;
#192 = APPROVAL_ROLE ( '' ) ;
#193 = DIRECTION ( 'NONE',  ( -3.491481338843133355E-15, 1.224646799147353207E-16, -1.000000000000000000 ) ) ;
#194 = EDGE_CURVE ( 'NONE', #173, #173, #81, .T. ) ;
#195 = CIRCLE ( 'NONE', #99, 1.499999999999999556 ) ;
#196 = FACE_OUTER_BOUND ( 'NONE', #175, .T. ) ;
#197 = CARTESIAN_POINT ( 'NONE',  ( 0.0000000000000000000, 0.0000000000000000000, 0.0000000000000000000 ) ) ;
#198 = DIRECTION ( 'NONE',  ( -3.491481338843133355E-15, 1.224646799147353207E-16, -1.000000000000000000 ) ) ;
#199 = DIRECTION ( 'NONE',  ( -3.491481338843133355E-15, 1.224646799147353207E-16, -1.000000000000000000 ) ) ;
#200 = PERSON_AND_ORGANIZATION ( #222, #85 ) ;
#201 = VERTEX_POINT ( 'NONE', #17 ) ;
#202 = APPROVAL_STATUS ( 'not_yet_approved' ) ;
#203 = ORIENTED_EDGE ( 'NONE', *, *, #205, .F. ) ;
#204 = CALENDAR_DATE ( 2021, 12, 11 ) ;
#205 = EDGE_CURVE ( 'NONE', #201, #201, #195, .T. ) ;
#206 = AXIS2_PLACEMENT_3D ( 'NONE', #109, #6, #26 ) ;
#207 = EDGE_LOOP ( 'NONE', ( #65 ) ) ;
#208 = ADVANCED_FACE ( 'NONE', ( #59, #90 ), #62, .T. ) ;
#209 =( GEOMETRIC_REPRESENTATION_CONTEXT ( 3 ) GLOBAL_UNCERTAINTY_ASSIGNED_CONTEXT ( ( #30 ) ) GLOBAL_UNIT_ASSIGNED_CONTEXT ( ( #15, #46, #13 ) ) REPRESENTATION_CONTEXT ( 'NONE', 'WORKASPACE' ) );
#210 = ADVANCED_FACE ( 'NONE', ( #95 ), #166, .F. ) ;
#211 = CARTESIAN_POINT ( 'NONE',  ( 1.735266225405037467E-13, -6.086494591762345225E-15, 49.70000000000000284 ) ) ;
#212 = DIRECTION ( 'NONE',  ( 3.491481338843133355E-15, -1.224646799147353207E-16, 1.000000000000000000 ) ) ;
#213 = DIRECTION ( 'NONE',  ( -4.275831445896958607E-31, -1.000000000000000000, -1.224646799147353207E-16 ) ) ;
#214 = CARTESIAN_POINT ( 'NONE',  ( 1.745740669421566678E-13, 8.998558695971073119E-33, 50.00000000000000000 ) ) ;
#215 = FACE_OUTER_BOUND ( 'NONE', #118, .T. ) ;
#216 = CIRCLE ( 'NONE', #38, 1.499999999999999556 ) ;
#217 = MECHANICAL_CONTEXT ( 'NONE', #110, 'mechanical' ) ;
#218 = CC_DESIGN_PERSON_AND_ORGANIZATION_ASSIGNMENT ( #16, #221, ( #3 ) ) ;
#219 = APPROVAL_ROLE ( '' ) ;
#220 = PERSON_AND_ORGANIZATION ( #222, #85 ) ;
#221 = PERSON_AND_ORGANIZATION_ROLE ( 'creator' ) ;
#222 = PERSON ( 'UNSPECIFIED', 'UNSPECIFIED', 'UNSPECIFIED', ('UNSPECIFIED'), ('UNSPECIFIED'), ('UNSPECIFIED') ) ;
#223 = APPROVAL_STATUS ( 'not_yet_approved' ) ;
ENDSEC;
END-ISO-10303-21;
