ISO-10303-21;
HEADER;
FILE_DESCRIPTION (( 'STEP AP203' ),
    '1' );
FILE_NAME ('3245.step',
    '2021-12-06T12:58:44',
    ( '' ),
    ( '' ),
    'SwSTEP 2.0',
    'SolidWorks 2019',
    '' );
FILE_SCHEMA (( 'CONFIG_CONTROL_DESIGN' ));
ENDSEC;

DATA;
#1 = PRODUCT_DEFINITION_FORMATION_WITH_SPECIFIED_SOURCE ( 'ANY', '', #160, .NOT_KNOWN. ) ;
#2 = FACE_OUTER_BOUND ( 'NONE', #100, .T. ) ;
#3 = AXIS2_PLACEMENT_3D ( 'NONE', #107, #22, #131 ) ;
#4 = MECHANICAL_CONTEXT ( 'NONE', #17, 'mechanical' ) ;
#5 = CARTESIAN_POINT ( 'NONE',  ( 3.142333204958820020E-15, 7.500000000000000000, 0.9000000000000000222 ) ) ;
#6 = CALENDAR_DATE ( 2021, 6, 12 ) ;
#7 = DIRECTION ( 'NONE',  ( 3.491481338843133355E-15, -1.224646799147352961E-16, 1.000000000000000000 ) ) ;
#8 = CARTESIAN_POINT ( 'NONE',  ( 0.0000000000000000000, 0.0000000000000000000, 0.0000000000000000000 ) ) ;
#9 = SHAPE_DEFINITION_REPRESENTATION ( #30, #80 ) ;
#10 = EDGE_LOOP ( 'NONE', ( #98 ) ) ;
#11 = PERSON_AND_ORGANIZATION ( #82, #65 ) ;
#12 = DIRECTION ( 'NONE',  ( -3.491481338843133355E-15, 1.224646799147352961E-16, -1.000000000000000000 ) ) ;
#13 = ADVANCED_FACE ( 'NONE', ( #2, #110 ), #81, .F. ) ;
#14 = LOCAL_TIME ( 13, 58, 44.00000000000000000, #74 ) ;
#15 = EDGE_LOOP ( 'NONE', ( #161 ) ) ;
#16 = ADVANCED_FACE ( 'NONE', ( #155, #41 ), #26, .T. ) ;
#17 = APPLICATION_CONTEXT ( 'configuration controlled 3d designs of mechanical parts and assemblies' ) ;
#18 = ADVANCED_FACE ( 'NONE', ( #156, #93 ), #56, .T. ) ;
#19 = APPROVAL_STATUS ( 'not_yet_approved' ) ;
#20 = AXIS2_PLACEMENT_3D ( 'NONE', #57, #34, #47 ) ;
#21 = FACE_OUTER_BOUND ( 'NONE', #10, .T. ) ;
#22 = DIRECTION ( 'NONE',  ( -3.491481338843133355E-15, 1.224646799147352961E-16, -1.000000000000000000 ) ) ;
#23 = PRODUCT_RELATED_PRODUCT_CATEGORY ( 'detail', '', ( #160 ) ) ;
#24 = SECURITY_CLASSIFICATION_LEVEL ( 'unclassified' ) ;
#25 = CALENDAR_DATE ( 2021, 6, 12 ) ;
#26 = PLANE ( 'NONE',  #164 ) ;
#27 = DATE_AND_TIME ( #97, #108 ) ;
#28 = UNCERTAINTY_MEASURE_WITH_UNIT (LENGTH_MEASURE( 1.000000000000000082E-05 ), #105, 'distance_accuracy_value', 'NONE');
#29 = APPLICATION_PROTOCOL_DEFINITION ( 'international standard', 'config_control_design', 1994, #17 ) ;
#30 = PRODUCT_DEFINITION_SHAPE ( 'NONE', 'NONE',  #118 ) ;
#31 = CIRCLE ( 'NONE', #3, 7.500000000000000000 ) ;
#32 = DIRECTION ( 'NONE',  ( 4.275831445896957731E-31, 1.000000000000000000, 1.224646799147352961E-16 ) ) ;
#33 = APPROVAL ( #153, 'UNSPECIFIED' ) ;
#34 = DIRECTION ( 'NONE',  ( -3.491481338843133355E-15, 1.224646799147352961E-16, -1.000000000000000000 ) ) ;
#35 = CIRCLE ( 'NONE', #101, 2.500000000000000000 ) ;
#36 = DIRECTION ( 'NONE',  ( 4.108650548026103445E-31, 1.000000000000000000, 1.156482317317871478E-16 ) ) ;
#37 = CC_DESIGN_PERSON_AND_ORGANIZATION_ASSIGNMENT ( #137, #53, ( #160 ) ) ;
#38 = DATE_AND_TIME ( #94, #157 ) ;
#39 = APPROVAL_DATE_TIME ( #143, #52 ) ;
#40 = COORDINATED_UNIVERSAL_TIME_OFFSET ( 1, 0, .AHEAD. ) ;
#41 = FACE_BOUND ( 'NONE', #66, .T. ) ;
#42 = ORIENTED_EDGE ( 'NONE', *, *, #144, .T. ) ;
#43 =( GEOMETRIC_REPRESENTATION_CONTEXT ( 3 ) GLOBAL_UNCERTAINTY_ASSIGNED_CONTEXT ( ( #28 ) ) GLOBAL_UNIT_ASSIGNED_CONTEXT ( ( #105, #127, #150 ) ) REPRESENTATION_CONTEXT ( 'NONE', 'WORKASPACE' ) );
#44 = DESIGN_CONTEXT ( 'detailed design', #78, 'design' ) ;
#45 = VERTEX_POINT ( 'NONE', #89 ) ;
#46 = AXIS2_PLACEMENT_3D ( 'NONE', #114, #72, #32 ) ;
#47 = DIRECTION ( 'NONE',  ( 4.275831445896957731E-31, 1.000000000000000000, 1.224646799147352714E-16 ) ) ;
#48 = APPROVAL_PERSON_ORGANIZATION ( #167, #130, #61 ) ;
#49 = APPROVAL_STATUS ( 'not_yet_approved' ) ;
#50 = APPROVAL_ROLE ( '' ) ;
#51 = CARTESIAN_POINT ( 'NONE',  ( 0.0000000000000000000, 0.0000000000000000000, 0.0000000000000000000 ) ) ;
#52 = APPROVAL ( #19, 'UNSPECIFIED' ) ;
#53 = PERSON_AND_ORGANIZATION_ROLE ( 'design_owner' ) ;
#54 = VERTEX_POINT ( 'NONE', #151 ) ;
#55 = CIRCLE ( 'NONE', #122, 7.500000000000000000 ) ;
#56 = PLANE ( 'NONE',  #135 ) ;
#57 = CARTESIAN_POINT ( 'NONE',  ( 0.0000000000000000000, 0.0000000000000000000, 0.0000000000000000000 ) ) ;
#58 = DIRECTION ( 'NONE',  ( 4.622231866529366047E-31, 1.000000000000000000, 1.301042606982605321E-16 ) ) ;
#59 = LOCAL_TIME ( 13, 58, 44.00000000000000000, #40 ) ;
#60 = PERSON_AND_ORGANIZATION_ROLE ( 'creator' ) ;
#61 = APPROVAL_ROLE ( '' ) ;
#62 = EDGE_CURVE ( 'NONE', #126, #126, #55, .T. ) ;
#63 = CALENDAR_DATE ( 2021, 6, 12 ) ;
#64 = MANIFOLD_SOLID_BREP ( 'Corps-Déplacer/Copier1', #147 ) ;
#65 = ORGANIZATION ( 'UNSPECIFIED', 'UNSPECIFIED', '' ) ;
#66 = EDGE_LOOP ( 'NONE', ( #125 ) ) ;
#67 = EDGE_LOOP ( 'NONE', ( #146 ) ) ;
#68 = CARTESIAN_POINT ( 'NONE',  ( 3.142333204958818836E-15, 2.500000000000000000, 0.8999999999999996891 ) ) ;
#69 = DIRECTION ( 'NONE',  ( -3.491481338843133355E-15, 1.224646799147352961E-16, -1.000000000000000000 ) ) ;
#70 = APPROVAL_ROLE ( '' ) ;
#71 = EDGE_CURVE ( 'NONE', #54, #54, #31, .T. ) ;
#72 = DIRECTION ( 'NONE',  ( -3.491481338843133355E-15, 1.224646799147352961E-16, -1.000000000000000000 ) ) ;
#73 = VERTEX_POINT ( 'NONE', #163 ) ;
#74 = COORDINATED_UNIVERSAL_TIME_OFFSET ( 1, 0, .AHEAD. ) ;
#75 = COORDINATED_UNIVERSAL_TIME_OFFSET ( 1, 0, .AHEAD. ) ;
#76 = CARTESIAN_POINT ( 'NONE',  ( -1.068957861474239389E-30, 2.500000000000000444, -3.061616997868382155E-16 ) ) ;
#77 = DATE_AND_TIME ( #63, #59 ) ;
#78 = APPLICATION_CONTEXT ( 'configuration controlled 3d designs of mechanical parts and assemblies' ) ;
#79 = ORIENTED_EDGE ( 'NONE', *, *, #62, .F. ) ;
#80 = ADVANCED_BREP_SHAPE_REPRESENTATION ( '3245', ( #64, #92 ), #43 ) ;
#81 = CYLINDRICAL_SURFACE ( 'NONE', #128, 2.500000000000000444 ) ;
#82 = PERSON ( 'UNSPECIFIED', 'UNSPECIFIED', 'UNSPECIFIED', ('UNSPECIFIED'), ('UNSPECIFIED'), ('UNSPECIFIED') ) ;
#83 = CC_DESIGN_SECURITY_CLASSIFICATION ( #115, ( #1 ) ) ;
#84 = CC_DESIGN_PERSON_AND_ORGANIZATION_ASSIGNMENT ( #95, #168, ( #1 ) ) ;
#85 = EDGE_LOOP ( 'NONE', ( #136 ) ) ;
#86 = CC_DESIGN_PERSON_AND_ORGANIZATION_ASSIGNMENT ( #120, #109, ( #118 ) ) ;
#87 = APPROVAL_PERSON_ORGANIZATION ( #91, #52, #70 ) ;
#88 = DIRECTION ( 'NONE',  ( -3.491481338843133355E-15, 1.224646799147352961E-16, -1.000000000000000000 ) ) ;
#89 = CARTESIAN_POINT ( 'NONE',  ( 0.0000000000000000000, 2.500000000000000444, 0.0000000000000000000 ) ) ;
#90 = DIRECTION ( 'NONE',  ( 1.000000000000000000, 0.0000000000000000000, 0.0000000000000000000 ) ) ;
#91 = PERSON_AND_ORGANIZATION ( #82, #65 ) ;
#92 = AXIS2_PLACEMENT_3D ( 'NONE', #8, #149, #90 ) ;
#93 = FACE_OUTER_BOUND ( 'NONE', #133, .T. ) ;
#94 = CALENDAR_DATE ( 2021, 6, 12 ) ;
#95 = PERSON_AND_ORGANIZATION ( #82, #65 ) ;
#96 = PERSON_AND_ORGANIZATION_ROLE ( 'classification_officer' ) ;
#97 = CALENDAR_DATE ( 2021, 6, 12 ) ;
#98 = ORIENTED_EDGE ( 'NONE', *, *, #62, .T. ) ;
#99 = EDGE_CURVE ( 'NONE', #45, #45, #159, .T. ) ;
#100 = EDGE_LOOP ( 'NONE', ( #145 ) ) ;
#101 = AXIS2_PLACEMENT_3D ( 'NONE', #140, #69, #58 ) ;
#102 = APPLICATION_PROTOCOL_DEFINITION ( 'international standard', 'config_control_design', 1994, #78 ) ;
#103 = LOCAL_TIME ( 13, 58, 44.00000000000000000, #129 ) ;
#104 = CC_DESIGN_PERSON_AND_ORGANIZATION_ASSIGNMENT ( #11, #96, ( #115 ) ) ;
#105 =( LENGTH_UNIT ( ) NAMED_UNIT ( * ) SI_UNIT ( .MILLI., .METRE. ) );
#106 = DIRECTION ( 'NONE',  ( -4.275831445896957731E-31, -1.000000000000000000, -1.224646799147352961E-16 ) ) ;
#107 = CARTESIAN_POINT ( 'NONE',  ( -3.206873584422718342E-30, 1.124819836996392658E-31, -9.184850993605145972E-16 ) ) ;
#108 = LOCAL_TIME ( 13, 58, 44.00000000000000000, #158 ) ;
#109 = PERSON_AND_ORGANIZATION_ROLE ( 'creator' ) ;
#110 = FACE_OUTER_BOUND ( 'NONE', #67, .T. ) ;
#111 = PERSON_AND_ORGANIZATION ( #82, #65 ) ;
#112 = EDGE_LOOP ( 'NONE', ( #42 ) ) ;
#113 = FACE_OUTER_BOUND ( 'NONE', #85, .T. ) ;
#114 = CARTESIAN_POINT ( 'NONE',  ( -1.068957861474239564E-30, 3.749399456654643472E-32, -3.061616997868383141E-16 ) ) ;
#115 = SECURITY_CLASSIFICATION ( '', '', #24 ) ;
#116 = CARTESIAN_POINT ( 'NONE',  ( 3.142333204958816864E-15, -1.102182119232616555E-16, 0.8999999999999991340 ) ) ;
#117 = APPROVAL_DATE_TIME ( #77, #33 ) ;
#118 = PRODUCT_DEFINITION ( 'UNKNOWN', '', #1, #44 ) ;
#119 = APPROVAL_DATE_TIME ( #38, #130 ) ;
#120 = PERSON_AND_ORGANIZATION ( #82, #65 ) ;
#121 = PERSON_AND_ORGANIZATION ( #82, #65 ) ;
#122 = AXIS2_PLACEMENT_3D ( 'NONE', #116, #138, #36 ) ;
#123 = DIRECTION ( 'NONE',  ( 4.275831445896957731E-31, 1.000000000000000000, 1.224646799147352961E-16 ) ) ;
#124 = CC_DESIGN_PERSON_AND_ORGANIZATION_ASSIGNMENT ( #121, #60, ( #1 ) ) ;
#125 = ORIENTED_EDGE ( 'NONE', *, *, #99, .F. ) ;
#126 = VERTEX_POINT ( 'NONE', #5 ) ;
#127 =( NAMED_UNIT ( * ) PLANE_ANGLE_UNIT ( ) SI_UNIT ( $, .RADIAN. ) );
#128 = AXIS2_PLACEMENT_3D ( 'NONE', #51, #12, #154 ) ;
#129 = COORDINATED_UNIVERSAL_TIME_OFFSET ( 1, 0, .AHEAD. ) ;
#130 = APPROVAL ( #49, 'UNSPECIFIED' ) ;
#131 = DIRECTION ( 'NONE',  ( 4.275831445896957731E-31, 1.000000000000000000, 1.224646799147352714E-16 ) ) ;
#132 = DATE_TIME_ROLE ( 'classification_date' ) ;
#133 = EDGE_LOOP ( 'NONE', ( #79 ) ) ;
#134 = CC_DESIGN_APPROVAL ( #33, ( #1 ) ) ;
#135 = AXIS2_PLACEMENT_3D ( 'NONE', #68, #7, #106 ) ;
#136 = ORIENTED_EDGE ( 'NONE', *, *, #71, .F. ) ;
#137 = PERSON_AND_ORGANIZATION ( #82, #65 ) ;
#138 = DIRECTION ( 'NONE',  ( -3.491481338843133355E-15, 1.224646799147352961E-16, -1.000000000000000000 ) ) ;
#139 = APPROVAL_PERSON_ORGANIZATION ( #111, #33, #50 ) ;
#140 = CARTESIAN_POINT ( 'NONE',  ( 3.142333204958818836E-15, -1.102182119232617295E-16, 0.8999999999999996891 ) ) ;
#141 = DATE_TIME_ROLE ( 'creation_date' ) ;
#142 = ADVANCED_FACE ( 'NONE', ( #21, #113 ), #166, .T. ) ;
#143 = DATE_AND_TIME ( #6, #103 ) ;
#144 = EDGE_CURVE ( 'NONE', #73, #73, #35, .T. ) ;
#145 = ORIENTED_EDGE ( 'NONE', *, *, #99, .T. ) ;
#146 = ORIENTED_EDGE ( 'NONE', *, *, #144, .F. ) ;
#147 = CLOSED_SHELL ( 'NONE', ( #16, #142, #18, #13 ) ) ;
#148 = CC_DESIGN_DATE_AND_TIME_ASSIGNMENT ( #169, #141, ( #118 ) ) ;
#149 = DIRECTION ( 'NONE',  ( 0.0000000000000000000, 0.0000000000000000000, 1.000000000000000000 ) ) ;
#150 =( NAMED_UNIT ( * ) SI_UNIT ( $, .STERADIAN. ) SOLID_ANGLE_UNIT ( ) );
#151 = CARTESIAN_POINT ( 'NONE',  ( 0.0000000000000000000, 7.500000000000000000, 0.0000000000000000000 ) ) ;
#152 = CC_DESIGN_APPROVAL ( #52, ( #118 ) ) ;
#153 = APPROVAL_STATUS ( 'not_yet_approved' ) ;
#154 = DIRECTION ( 'NONE',  ( 4.275831445896957731E-31, 1.000000000000000000, 1.224646799147352961E-16 ) ) ;
#155 = FACE_OUTER_BOUND ( 'NONE', #15, .T. ) ;
#156 = FACE_BOUND ( 'NONE', #112, .T. ) ;
#157 = LOCAL_TIME ( 13, 58, 44.00000000000000000, #75 ) ;
#158 = COORDINATED_UNIVERSAL_TIME_OFFSET ( 1, 0, .AHEAD. ) ;
#159 = CIRCLE ( 'NONE', #46, 2.500000000000000444 ) ;
#160 = PRODUCT ( '3245', '3245', '', ( #4 ) ) ;
#161 = ORIENTED_EDGE ( 'NONE', *, *, #71, .T. ) ;
#162 = CC_DESIGN_APPROVAL ( #130, ( #115 ) ) ;
#163 = CARTESIAN_POINT ( 'NONE',  ( 3.142333204958820020E-15, 2.500000000000000000, 0.9000000000000000222 ) ) ;
#164 = AXIS2_PLACEMENT_3D ( 'NONE', #76, #88, #123 ) ;
#165 = CC_DESIGN_DATE_AND_TIME_ASSIGNMENT ( #27, #132, ( #115 ) ) ;
#166 = CYLINDRICAL_SURFACE ( 'NONE', #20, 7.500000000000000000 ) ;
#167 = PERSON_AND_ORGANIZATION ( #82, #65 ) ;
#168 = PERSON_AND_ORGANIZATION_ROLE ( 'design_supplier' ) ;
#169 = DATE_AND_TIME ( #25, #14 ) ;
ENDSEC;
END-ISO-10303-21;
