ISO-10303-21;
HEADER;
FILE_DESCRIPTION (( 'STEP AP203' ),
    '1' );
FILE_NAME ('3244.step',
    '2021-12-06T12:58:44',
    ( '' ),
    ( '' ),
    'SwSTEP 2.0',
    'SolidWorks 2019',
    '' );
FILE_SCHEMA (( 'CONFIG_CONTROL_DESIGN' ));
ENDSEC;

DATA;
#1 = CYLINDRICAL_SURFACE ( 'NONE', #141, 7.500000000000000000 ) ;
#2 = CC_DESIGN_DATE_AND_TIME_ASSIGNMENT ( #85, #72, ( #39 ) ) ;
#3 = ORIENTED_EDGE ( 'NONE', *, *, #144, .F. ) ;
#4 = PERSON_AND_ORGANIZATION ( #94, #81 ) ;
#5 = CARTESIAN_POINT ( 'NONE',  ( 2.793185071074504318E-15, -8.572527594031458399E-17, 0.7999999999999992673 ) ) ;
#6 = MECHANICAL_CONTEXT ( 'NONE', #70, 'mechanical' ) ;
#7 = AXIS2_PLACEMENT_3D ( 'NONE', #17, #158, #119 ) ;
#8 = EDGE_LOOP ( 'NONE', ( #132 ) ) ;
#9 = DIRECTION ( 'NONE',  ( -3.491481338843133355E-15, 1.071565949253933409E-16, -1.000000000000000000 ) ) ;
#10 = DATE_TIME_ROLE ( 'classification_date' ) ;
#11 = DATE_AND_TIME ( #166, #61 ) ;
#12 = CC_DESIGN_PERSON_AND_ORGANIZATION_ASSIGNMENT ( #4, #40, ( #44 ) ) ;
#13 = APPROVAL ( #37, 'UNSPECIFIED' ) ;
#14 = LOCAL_TIME ( 13, 58, 44.00000000000000000, #42 ) ;
#15 = APPROVAL_DATE_TIME ( #45, #123 ) ;
#16 = DATE_AND_TIME ( #129, #121 ) ;
#17 = CARTESIAN_POINT ( 'NONE',  ( 0.0000000000000000000, 0.0000000000000000000, 0.0000000000000000000 ) ) ;
#18 = DIRECTION ( 'NONE',  ( -3.491481338843133355E-15, 1.071565949253933409E-16, -1.000000000000000000 ) ) ;
#19 = DIRECTION ( 'NONE',  ( -3.491481338843133355E-15, 1.071565949253933409E-16, -1.000000000000000000 ) ) ;
#20 = CALENDAR_DATE ( 2021, 6, 12 ) ;
#21 = ADVANCED_FACE ( 'NONE', ( #115, #96 ), #62, .T. ) ;
#22 = CALENDAR_DATE ( 2021, 6, 12 ) ;
#23 = VERTEX_POINT ( 'NONE', #108 ) ;
#24 = CARTESIAN_POINT ( 'NONE',  ( 0.0000000000000000000, 7.500000000000000000, 0.0000000000000000000 ) ) ;
#25 = ORIENTED_EDGE ( 'NONE', *, *, #103, .T. ) ;
#26 = DIRECTION ( 'NONE',  ( 3.741352515159836372E-31, 1.000000000000000000, 1.071565949253933286E-16 ) ) ;
#27 = PERSON_AND_ORGANIZATION_ROLE ( 'creator' ) ;
#28 = PRODUCT_DEFINITION_SHAPE ( 'NONE', 'NONE',  #39 ) ;
#29 = DIRECTION ( 'NONE',  ( 3.491481338843133355E-15, -1.071565949253933409E-16, 1.000000000000000000 ) ) ;
#30 = FACE_OUTER_BOUND ( 'NONE', #76, .T. ) ;
#31 = SECURITY_CLASSIFICATION_LEVEL ( 'unclassified' ) ;
#32 = PERSON_AND_ORGANIZATION_ROLE ( 'classification_officer' ) ;
#33 = CC_DESIGN_APPROVAL ( #13, ( #168 ) ) ;
#34 = ADVANCED_FACE ( 'NONE', ( #111, #58 ), #101, .F. ) ;
#35 = EDGE_CURVE ( 'NONE', #169, #169, #54, .T. ) ;
#36 = DIRECTION ( 'NONE',  ( 3.741352515159836372E-31, 1.000000000000000000, 1.071565949253933409E-16 ) ) ;
#37 = APPROVAL_STATUS ( 'not_yet_approved' ) ;
#38 = EDGE_LOOP ( 'NONE', ( #46 ) ) ;
#39 = PRODUCT_DEFINITION ( 'UNKNOWN', '', #168, #102 ) ;
#40 = PERSON_AND_ORGANIZATION_ROLE ( 'design_owner' ) ;
#41 = DIRECTION ( 'NONE',  ( -3.491481338843133355E-15, 1.071565949253933409E-16, -1.000000000000000000 ) ) ;
#42 = COORDINATED_UNIVERSAL_TIME_OFFSET ( 1, 0, .AHEAD. ) ;
#43 = AXIS2_PLACEMENT_3D ( 'NONE', #124, #147, #26 ) ;
#44 = PRODUCT ( '3244', '3244', '', ( #6 ) ) ;
#45 = DATE_AND_TIME ( #55, #14 ) ;
#46 = ORIENTED_EDGE ( 'NONE', *, *, #104, .F. ) ;
#47 = DIRECTION ( 'NONE',  ( 3.741352515159836810E-31, 1.000000000000000000, 1.071565949253933409E-16 ) ) ;
#48 = PERSON_AND_ORGANIZATION_ROLE ( 'design_supplier' ) ;
#49 = CC_DESIGN_SECURITY_CLASSIFICATION ( #98, ( #168 ) ) ;
#50 = APPROVAL_ROLE ( '' ) ;
#51 = SHAPE_DEFINITION_REPRESENTATION ( #28, #89 ) ;
#52 = CIRCLE ( 'NONE', #79, 7.500000000000000000 ) ;
#53 = UNCERTAINTY_MEASURE_WITH_UNIT (LENGTH_MEASURE( 1.000000000000000082E-05 ), #106, 'distance_accuracy_value', 'NONE');
#54 = CIRCLE ( 'NONE', #162, 2.500000000000000444 ) ;
#55 = CALENDAR_DATE ( 2021, 6, 12 ) ;
#56 = EDGE_LOOP ( 'NONE', ( #150 ) ) ;
#57 = APPROVAL_STATUS ( 'not_yet_approved' ) ;
#58 = FACE_OUTER_BOUND ( 'NONE', #38, .T. ) ;
#59 = CARTESIAN_POINT ( 'NONE',  ( -9.353381287899590493E-31, 2.500000000000000444, -2.678914873134832845E-16 ) ) ;
#60 = APPLICATION_PROTOCOL_DEFINITION ( 'international standard', 'config_control_design', 1994, #149 ) ;
#61 = LOCAL_TIME ( 13, 58, 44.00000000000000000, #112 ) ;
#62 = PLANE ( 'NONE',  #86 ) ;
#63 = DIRECTION ( 'NONE',  ( 3.595069229522840405E-31, 1.000000000000000000, 1.011922027653137513E-16 ) ) ;
#64 = CC_DESIGN_DATE_AND_TIME_ASSIGNMENT ( #135, #10, ( #98 ) ) ;
#65 = PERSON_AND_ORGANIZATION ( #94, #81 ) ;
#66 = AXIS2_PLACEMENT_3D ( 'NONE', #163, #88, #47 ) ;
#67 = MANIFOLD_SOLID_BREP ( 'Corps-Déplacer/Copier1', #167 ) ;
#68 = CC_DESIGN_PERSON_AND_ORGANIZATION_ASSIGNMENT ( #99, #27, ( #39 ) ) ;
#69 = ADVANCED_FACE ( 'NONE', ( #30, #73 ), #1, .T. ) ;
#70 = APPLICATION_CONTEXT ( 'configuration controlled 3d designs of mechanical parts and assemblies' ) ;
#71 = PLANE ( 'NONE',  #83 ) ;
#72 = DATE_TIME_ROLE ( 'creation_date' ) ;
#73 = FACE_OUTER_BOUND ( 'NONE', #159, .T. ) ;
#74 = APPROVAL_DATE_TIME ( #16, #13 ) ;
#75 =( GEOMETRIC_REPRESENTATION_CONTEXT ( 3 ) GLOBAL_UNCERTAINTY_ASSIGNED_CONTEXT ( ( #53 ) ) GLOBAL_UNIT_ASSIGNED_CONTEXT ( ( #106, #92, #157 ) ) REPRESENTATION_CONTEXT ( 'NONE', 'WORKASPACE' ) );
#76 = EDGE_LOOP ( 'NONE', ( #25 ) ) ;
#77 = ORIENTED_EDGE ( 'NONE', *, *, #144, .T. ) ;
#78 = DIRECTION ( 'NONE',  ( 3.081487911019574737E-31, 1.000000000000000000, 8.673617379884028076E-17 ) ) ;
#79 = AXIS2_PLACEMENT_3D ( 'NONE', #5, #9, #63 ) ;
#80 = PERSON_AND_ORGANIZATION ( #94, #81 ) ;
#81 = ORGANIZATION ( 'UNSPECIFIED', 'UNSPECIFIED', '' ) ;
#82 = COORDINATED_UNIVERSAL_TIME_OFFSET ( 1, 0, .AHEAD. ) ;
#83 = AXIS2_PLACEMENT_3D ( 'NONE', #59, #90, #36 ) ;
#84 = LOCAL_TIME ( 13, 58, 44.00000000000000000, #155 ) ;
#85 = DATE_AND_TIME ( #22, #84 ) ;
#86 = AXIS2_PLACEMENT_3D ( 'NONE', #143, #29, #117 ) ;
#87 = COORDINATED_UNIVERSAL_TIME_OFFSET ( 1, 0, .AHEAD. ) ;
#88 = DIRECTION ( 'NONE',  ( -3.491481338843133355E-15, 1.071565949253933409E-16, -1.000000000000000000 ) ) ;
#89 = ADVANCED_BREP_SHAPE_REPRESENTATION ( '3244', ( #67, #7 ), #75 ) ;
#90 = DIRECTION ( 'NONE',  ( -3.491481338843133355E-15, 1.071565949253933409E-16, -1.000000000000000000 ) ) ;
#91 = CARTESIAN_POINT ( 'NONE',  ( 0.0000000000000000000, 0.0000000000000000000, 0.0000000000000000000 ) ) ;
#92 =( NAMED_UNIT ( * ) PLANE_ANGLE_UNIT ( ) SI_UNIT ( $, .RADIAN. ) );
#93 = APPROVAL_DATE_TIME ( #11, #153 ) ;
#94 = PERSON ( 'UNSPECIFIED', 'UNSPECIFIED', 'UNSPECIFIED', ('UNSPECIFIED'), ('UNSPECIFIED'), ('UNSPECIFIED') ) ;
#95 = CARTESIAN_POINT ( 'NONE',  ( 0.0000000000000000000, 2.500000000000000444, 0.0000000000000000000 ) ) ;
#96 = FACE_OUTER_BOUND ( 'NONE', #122, .T. ) ;
#97 = APPROVAL_ROLE ( '' ) ;
#98 = SECURITY_CLASSIFICATION ( '', '', #31 ) ;
#99 = PERSON_AND_ORGANIZATION ( #94, #81 ) ;
#100 = ORIENTED_EDGE ( 'NONE', *, *, #103, .F. ) ;
#101 = CYLINDRICAL_SURFACE ( 'NONE', #66, 2.500000000000001332 ) ;
#102 = DESIGN_CONTEXT ( 'detailed design', #149, 'design' ) ;
#103 = EDGE_CURVE ( 'NONE', #23, #23, #52, .T. ) ;
#104 = EDGE_CURVE ( 'NONE', #140, #140, #120, .T. ) ;
#105 = AXIS2_PLACEMENT_3D ( 'NONE', #134, #19, #78 ) ;
#106 =( LENGTH_UNIT ( ) NAMED_UNIT ( * ) SI_UNIT ( .MILLI., .METRE. ) );
#107 = PERSON_AND_ORGANIZATION ( #94, #81 ) ;
#108 = CARTESIAN_POINT ( 'NONE',  ( 2.793185071074507079E-15, 7.500000000000000000, 0.8000000000000000444 ) ) ;
#109 = VERTEX_POINT ( 'NONE', #24 ) ;
#110 = CC_DESIGN_APPROVAL ( #123, ( #39 ) ) ;
#111 = FACE_OUTER_BOUND ( 'NONE', #133, .T. ) ;
#112 = COORDINATED_UNIVERSAL_TIME_OFFSET ( 1, 0, .AHEAD. ) ;
#113 = PERSON_AND_ORGANIZATION ( #94, #81 ) ;
#114 = CC_DESIGN_PERSON_AND_ORGANIZATION_ASSIGNMENT ( #65, #32, ( #98 ) ) ;
#115 = FACE_BOUND ( 'NONE', #56, .T. ) ;
#116 = FACE_OUTER_BOUND ( 'NONE', #130, .T. ) ;
#117 = DIRECTION ( 'NONE',  ( -3.741352515159836372E-31, -1.000000000000000000, -1.071565949253933409E-16 ) ) ;
#118 = DIRECTION ( 'NONE',  ( 3.741352515159836372E-31, 1.000000000000000000, 1.071565949253933286E-16 ) ) ;
#119 = DIRECTION ( 'NONE',  ( 1.000000000000000000, 0.0000000000000000000, 0.0000000000000000000 ) ) ;
#120 = CIRCLE ( 'NONE', #105, 2.500000000000002220 ) ;
#121 = LOCAL_TIME ( 13, 58, 44.00000000000000000, #87 ) ;
#122 = EDGE_LOOP ( 'NONE', ( #100 ) ) ;
#123 = APPROVAL ( #57, 'UNSPECIFIED' ) ;
#124 = CARTESIAN_POINT ( 'NONE',  ( -2.806014386369877148E-30, 8.611901877003624689E-32, -8.036744619404500014E-16 ) ) ;
#125 = CC_DESIGN_PERSON_AND_ORGANIZATION_ASSIGNMENT ( #164, #48, ( #168 ) ) ;
#126 = APPROVAL_PERSON_ORGANIZATION ( #113, #13, #142 ) ;
#127 = CC_DESIGN_PERSON_AND_ORGANIZATION_ASSIGNMENT ( #107, #136, ( #168 ) ) ;
#128 = FACE_BOUND ( 'NONE', #8, .T. ) ;
#129 = CALENDAR_DATE ( 2021, 6, 12 ) ;
#130 = EDGE_LOOP ( 'NONE', ( #77 ) ) ;
#131 = CARTESIAN_POINT ( 'NONE',  ( 2.793185071074506684E-15, 2.500000000000002220, 0.7999999999999999334 ) ) ;
#132 = ORIENTED_EDGE ( 'NONE', *, *, #35, .F. ) ;
#133 = EDGE_LOOP ( 'NONE', ( #148 ) ) ;
#134 = CARTESIAN_POINT ( 'NONE',  ( 2.793185071074505895E-15, -8.572527594031463329E-17, 0.7999999999999997113 ) ) ;
#135 = DATE_AND_TIME ( #20, #160 ) ;
#136 = PERSON_AND_ORGANIZATION_ROLE ( 'creator' ) ;
#137 = CIRCLE ( 'NONE', #43, 7.500000000000000000 ) ;
#138 = CC_DESIGN_APPROVAL ( #153, ( #98 ) ) ;
#139 = APPROVAL_PERSON_ORGANIZATION ( #80, #153, #50 ) ;
#140 = VERTEX_POINT ( 'NONE', #131 ) ;
#141 = AXIS2_PLACEMENT_3D ( 'NONE', #91, #18, #118 ) ;
#142 = APPROVAL_ROLE ( '' ) ;
#143 = CARTESIAN_POINT ( 'NONE',  ( 2.793185071074505895E-15, 2.500000000000002220, 0.7999999999999997113 ) ) ;
#144 = EDGE_CURVE ( 'NONE', #109, #109, #137, .T. ) ;
#145 = DIRECTION ( 'NONE',  ( 3.741352515159836810E-31, 1.000000000000000000, 1.071565949253933286E-16 ) ) ;
#146 = APPROVAL_PERSON_ORGANIZATION ( #161, #123, #97 ) ;
#147 = DIRECTION ( 'NONE',  ( -3.491481338843133355E-15, 1.071565949253933409E-16, -1.000000000000000000 ) ) ;
#148 = ORIENTED_EDGE ( 'NONE', *, *, #35, .T. ) ;
#149 = APPLICATION_CONTEXT ( 'configuration controlled 3d designs of mechanical parts and assemblies' ) ;
#150 = ORIENTED_EDGE ( 'NONE', *, *, #104, .T. ) ;
#151 = CARTESIAN_POINT ( 'NONE',  ( -9.353381287899593996E-31, 2.870633959001209142E-32, -2.678914873134833831E-16 ) ) ;
#152 = ADVANCED_FACE ( 'NONE', ( #116, #128 ), #71, .T. ) ;
#153 = APPROVAL ( #165, 'UNSPECIFIED' ) ;
#154 = PRODUCT_RELATED_PRODUCT_CATEGORY ( 'detail', '', ( #44 ) ) ;
#155 = COORDINATED_UNIVERSAL_TIME_OFFSET ( 1, 0, .AHEAD. ) ;
#156 = APPLICATION_PROTOCOL_DEFINITION ( 'international standard', 'config_control_design', 1994, #70 ) ;
#157 =( NAMED_UNIT ( * ) SI_UNIT ( $, .STERADIAN. ) SOLID_ANGLE_UNIT ( ) );
#158 = DIRECTION ( 'NONE',  ( 0.0000000000000000000, 0.0000000000000000000, 1.000000000000000000 ) ) ;
#159 = EDGE_LOOP ( 'NONE', ( #3 ) ) ;
#160 = LOCAL_TIME ( 13, 58, 44.00000000000000000, #82 ) ;
#161 = PERSON_AND_ORGANIZATION ( #94, #81 ) ;
#162 = AXIS2_PLACEMENT_3D ( 'NONE', #151, #41, #145 ) ;
#163 = CARTESIAN_POINT ( 'NONE',  ( 0.0000000000000000000, 0.0000000000000000000, 0.0000000000000000000 ) ) ;
#164 = PERSON_AND_ORGANIZATION ( #94, #81 ) ;
#165 = APPROVAL_STATUS ( 'not_yet_approved' ) ;
#166 = CALENDAR_DATE ( 2021, 6, 12 ) ;
#167 = CLOSED_SHELL ( 'NONE', ( #152, #69, #21, #34 ) ) ;
#168 = PRODUCT_DEFINITION_FORMATION_WITH_SPECIFIED_SOURCE ( 'ANY', '', #44, .NOT_KNOWN. ) ;
#169 = VERTEX_POINT ( 'NONE', #95 ) ;
ENDSEC;
END-ISO-10303-21;
