ISO-10303-21;
HEADER;
FILE_DESCRIPTION (( 'STEP AP203' ),
    '1' );
FILE_NAME ('32313.step',
    '2021-10-15T13:34:35',
    ( '' ),
    ( '' ),
    'SwSTEP 2.0',
    'SolidWorks 2019',
    '' );
FILE_SCHEMA (( 'CONFIG_CONTROL_DESIGN' ));
ENDSEC;

DATA;
#1 = CALENDAR_DATE ( 2021, 15, 10 ) ;
#2 = VERTEX_POINT ( 'NONE', #65 ) ;
#3 = VERTEX_POINT ( 'NONE', #5 ) ;
#4 = CLOSED_SHELL ( 'NONE', ( #142, #18, #168, #56 ) ) ;
#5 = CARTESIAN_POINT ( 'NONE',  ( 2.304377683636468267E-13, 2.349999999999992983, 66.00000000000000000 ) ) ;
#6 = FACE_OUTER_BOUND ( 'NONE', #23, .T. ) ;
#7 = AXIS2_PLACEMENT_3D ( 'NONE', #71, #129, #125 ) ;
#8 = DIRECTION ( 'NONE',  ( 4.275831445896958607E-31, 1.000000000000000000, 1.224646799147353207E-16 ) ) ;
#9 = EDGE_LOOP ( 'NONE', ( #102 ) ) ;
#10 = DIRECTION ( 'NONE',  ( -3.491481338843133355E-15, 1.224646799147353207E-16, -1.000000000000000000 ) ) ;
#11 = FACE_OUTER_BOUND ( 'NONE', #9, .T. ) ;
#12 = APPROVAL_ROLE ( '' ) ;
#13 = AXIS2_PLACEMENT_3D ( 'NONE', #198, #107, #94 ) ;
#14 = PLANE ( 'NONE',  #66 ) ;
#15 = CALENDAR_DATE ( 2021, 15, 10 ) ;
#16 = DIRECTION ( 'NONE',  ( 0.0000000000000000000, 1.000000000000000000, 0.0000000000000000000 ) ) ;
#17 = COORDINATED_UNIVERSAL_TIME_OFFSET ( 1, 0, .AHEAD. ) ;
#18 = ADVANCED_FACE ( 'NONE', ( #169, #6 ), #126, .T. ) ;
#19 = APPROVAL_DATE_TIME ( #64, #145 ) ;
#20 = APPLICATION_CONTEXT ( 'configuration controlled 3d designs of mechanical parts and assemblies' ) ;
#21 =( LENGTH_UNIT ( ) NAMED_UNIT ( * ) SI_UNIT ( .MILLI., .METRE. ) );
#22 = AXIS2_PLACEMENT_3D ( 'NONE', #185, #44, #152 ) ;
#23 = EDGE_LOOP ( 'NONE', ( #147 ) ) ;
#24 = DIRECTION ( 'NONE',  ( -3.491481338843133355E-15, 1.224646799147353207E-16, -1.000000000000000000 ) ) ;
#25 = APPROVAL_DATE_TIME ( #199, #73 ) ;
#26 = CARTESIAN_POINT ( 'NONE',  ( 0.0000000000000000000, 0.0000000000000000000, 0.0000000000000000000 ) ) ;
#27 = CLOSED_SHELL ( 'NONE', ( #53, #193, #30 ) ) ;
#28 = CIRCLE ( 'NONE', #13, 2.350000000000001421 ) ;
#29 = FACE_OUTER_BOUND ( 'NONE', #167, .T. ) ;
#30 = ADVANCED_FACE ( 'NONE', ( #179 ), #70, .T. ) ;
#31 = DATE_TIME_ROLE ( 'classification_date' ) ;
#32 = AXIS2_PLACEMENT_3D ( 'NONE', #46, #121, #157 ) ;
#33 = FACE_BOUND ( 'NONE', #130, .T. ) ;
#34 =( NAMED_UNIT ( * ) SI_UNIT ( $, .STERADIAN. ) SOLID_ANGLE_UNIT ( ) );
#35 = DIRECTION ( 'NONE',  ( 0.0000000000000000000, 1.000000000000000000, 0.0000000000000000000 ) ) ;
#36 = AXIS2_PLACEMENT_3D ( 'NONE', #131, #105, #76 ) ;
#37 = DIRECTION ( 'NONE',  ( 1.000000000000000000, 0.0000000000000000000, 0.0000000000000000000 ) ) ;
#38 = CARTESIAN_POINT ( 'NONE',  ( 9.776147748760773395E-14, 2.849999999999992983, 28.00000000000000000 ) ) ;
#39 = APPROVAL_STATUS ( 'not_yet_approved' ) ;
#40 = PERSON_AND_ORGANIZATION ( #156, #172 ) ;
#41 = EDGE_CURVE ( 'NONE', #176, #176, #74, .T. ) ;
#42 = LOCAL_TIME ( 15, 34, 35.00000000000000000, #170 ) ;
#43 = MANIFOLD_SOLID_BREP ( 'Corps-Déplacer/Copier1[1]', #4 ) ;
#44 = DIRECTION ( 'NONE',  ( -3.491481338843133355E-15, 1.224646799147353207E-16, -1.000000000000000000 ) ) ;
#45 = LOCAL_TIME ( 15, 34, 35.00000000000000000, #151 ) ;
#46 = CARTESIAN_POINT ( 'NONE',  ( 3.621766550379244397E-15, -1.270344699780212004E-16, 1.037315167658687809 ) ) ;
#47 = LOCAL_TIME ( 15, 34, 35.00000000000000000, #137 ) ;
#48 = APPROVAL_ROLE ( '' ) ;
#49 = CC_DESIGN_PERSON_AND_ORGANIZATION_ASSIGNMENT ( #122, #52, ( #181 ) ) ;
#50 = PERSON_AND_ORGANIZATION ( #156, #172 ) ;
#51 = CIRCLE ( 'NONE', #32, 2.849999999999992983 ) ;
#52 = PERSON_AND_ORGANIZATION_ROLE ( 'design_supplier' ) ;
#53 = ADVANCED_FACE ( 'NONE', ( #197 ), #200, .T. ) ;
#54 = VERTEX_POINT ( 'NONE', #99 ) ;
#55 = ORIENTED_EDGE ( 'NONE', *, *, #175, .F. ) ;
#56 = ADVANCED_FACE ( 'NONE', ( #29 ), #171, .F. ) ;
#57 = ORIENTED_EDGE ( 'NONE', *, *, #79, .T. ) ;
#58 = AXIS2_PLACEMENT_3D ( 'NONE', #60, #118, #77 ) ;
#59 = EDGE_LOOP ( 'NONE', ( #116 ) ) ;
#60 = CARTESIAN_POINT ( 'NONE',  ( 3.621766550379244397E-15, -1.270344699780212004E-16, 1.037315167658687809 ) ) ;
#61 = AXIS2_PLACEMENT_3D ( 'NONE', #67, #111, #37 ) ;
#62 = CARTESIAN_POINT ( 'NONE',  ( 0.0000000000000000000, 0.0000000000000000000, 0.0000000000000000000 ) ) ;
#63 = CYLINDRICAL_SURFACE ( 'NONE', #188, 2.849999999999994760 ) ;
#64 = DATE_AND_TIME ( #1, #47 ) ;
#65 = CARTESIAN_POINT ( 'NONE',  ( 3.621766550379245975E-15, 2.849999999999992983, 1.037315167658688253 ) ) ;
#66 = AXIS2_PLACEMENT_3D ( 'NONE', #153, #135, #154 ) ;
#67 = CARTESIAN_POINT ( 'NONE',  ( 0.0000000000000000000, 0.0000000000000000000, 0.0000000000000000000 ) ) ;
#68 = ORIENTED_EDGE ( 'NONE', *, *, #69, .F. ) ;
#69 = EDGE_CURVE ( 'NONE', #163, #163, #87, .T. ) ;
#70 = PLANE ( 'NONE',  #7 ) ;
#71 = CARTESIAN_POINT ( 'NONE',  ( 9.776147748760773395E-14, 2.137157690293139702E-32, 28.00000000000000000 ) ) ;
#72 = EDGE_LOOP ( 'NONE', ( #195 ) ) ;
#73 = APPROVAL ( #148, 'UNSPECIFIED' ) ;
#74 = CIRCLE ( 'NONE', #36, 2.849999999999996536 ) ;
#75 = CC_DESIGN_SECURITY_CLASSIFICATION ( #117, ( #181 ) ) ;
#76 = DIRECTION ( 'NONE',  ( 0.0000000000000000000, 1.000000000000000000, 0.0000000000000000000 ) ) ;
#77 = DIRECTION ( 'NONE',  ( -5.406119142139622933E-31, -1.000000000000000000, -1.521687259628781959E-16 ) ) ;
#78 = CARTESIAN_POINT ( 'NONE',  ( 2.286920276942252663E-13, -8.021436534415164826E-15, 65.50000000000000000 ) ) ;
#79 = EDGE_CURVE ( 'NONE', #3, #3, #28, .T. ) ;
#80 = PERSON_AND_ORGANIZATION ( #156, #172 ) ;
#81 = DIRECTION ( 'NONE',  ( -3.491481338843133355E-15, 1.224646799147353207E-16, -1.000000000000000000 ) ) ;
#82 = APPLICATION_CONTEXT ( 'configuration controlled 3d designs of mechanical parts and assemblies' ) ;
#83 = CC_DESIGN_APPROVAL ( #73, ( #117 ) ) ;
#84 = DATE_AND_TIME ( #162, #98 ) ;
#85 = CC_DESIGN_DATE_AND_TIME_ASSIGNMENT ( #84, #101, ( #119 ) ) ;
#86 = PERSON_AND_ORGANIZATION ( #156, #172 ) ;
#87 = CIRCLE ( 'NONE', #161, 2.849999999999996536 ) ;
#88 = APPROVAL_STATUS ( 'not_yet_approved' ) ;
#89 = EDGE_LOOP ( 'NONE', ( #68 ) ) ;
#90 = CC_DESIGN_PERSON_AND_ORGANIZATION_ASSIGNMENT ( #50, #139, ( #181 ) ) ;
#91 = DATE_AND_TIME ( #15, #45 ) ;
#92 = AXIS2_PLACEMENT_3D ( 'NONE', #78, #158, #16 ) ;
#93 = CARTESIAN_POINT ( 'NONE',  ( 9.776147748760773395E-14, -3.429011037612589276E-15, 28.00000000000000000 ) ) ;
#94 = DIRECTION ( 'NONE',  ( 0.0000000000000000000, 1.000000000000000000, 0.0000000000000000000 ) ) ;
#95 = FACE_OUTER_BOUND ( 'NONE', #59, .T. ) ;
#96 = CARTESIAN_POINT ( 'NONE',  ( 2.304377683636468267E-13, -8.082668874372532400E-15, 66.00000000000000000 ) ) ;
#97 = MECHANICAL_CONTEXT ( 'NONE', #20, 'mechanical' ) ;
#98 = LOCAL_TIME ( 15, 34, 35.00000000000000000, #17 ) ;
#99 = CARTESIAN_POINT ( 'NONE',  ( 2.286920276942252663E-13, 2.849999999999992983, 65.50000000000000000 ) ) ;
#100 = APPROVAL_ROLE ( '' ) ;
#101 = DATE_TIME_ROLE ( 'creation_date' ) ;
#102 = ORIENTED_EDGE ( 'NONE', *, *, #178, .F. ) ;
#103 = CC_DESIGN_DATE_AND_TIME_ASSIGNMENT ( #91, #31, ( #117 ) ) ;
#104 = DESIGN_CONTEXT ( 'detailed design', #82, 'design' ) ;
#105 = DIRECTION ( 'NONE',  ( -3.491481338843133355E-15, 1.224646799147353207E-16, -1.000000000000000000 ) ) ;
#106 = PERSON_AND_ORGANIZATION_ROLE ( 'classification_officer' ) ;
#107 = DIRECTION ( 'NONE',  ( -3.491481338843133355E-15, 1.224646799147353207E-16, -1.000000000000000000 ) ) ;
#108 = SHAPE_DEFINITION_REPRESENTATION ( #189, #128 ) ;
#109 =( GEOMETRIC_REPRESENTATION_CONTEXT ( 3 ) GLOBAL_UNCERTAINTY_ASSIGNED_CONTEXT ( ( #182 ) ) GLOBAL_UNIT_ASSIGNED_CONTEXT ( ( #21, #173, #34 ) ) REPRESENTATION_CONTEXT ( 'NONE', 'WORKASPACE' ) );
#110 = MANIFOLD_SOLID_BREP ( 'Corps-Déplacer/Copier1[2]', #27 ) ;
#111 = DIRECTION ( 'NONE',  ( 0.0000000000000000000, 0.0000000000000000000, 1.000000000000000000 ) ) ;
#112 = CC_DESIGN_PERSON_AND_ORGANIZATION_ASSIGNMENT ( #80, #106, ( #117 ) ) ;
#113 = APPLICATION_PROTOCOL_DEFINITION ( 'international standard', 'config_control_design', 1994, #20 ) ;
#114 = CALENDAR_DATE ( 2021, 15, 10 ) ;
#115 = APPROVAL_PERSON_ORGANIZATION ( #190, #145, #48 ) ;
#116 = ORIENTED_EDGE ( 'NONE', *, *, #41, .T. ) ;
#117 = SECURITY_CLASSIFICATION ( '', '', #136 ) ;
#118 = DIRECTION ( 'NONE',  ( 3.491481338843133355E-15, -1.224646799147353207E-16, 1.000000000000000000 ) ) ;
#119 = PRODUCT_DEFINITION ( 'UNKNOWN', '', #181, #104 ) ;
#120 = AXIS2_PLACEMENT_3D ( 'NONE', #26, #24, #8 ) ;
#121 = DIRECTION ( 'NONE',  ( -3.491481338843133355E-15, 1.224646799147353207E-16, -1.000000000000000000 ) ) ;
#122 = PERSON_AND_ORGANIZATION ( #156, #172 ) ;
#123 = CC_DESIGN_APPROVAL ( #186, ( #119 ) ) ;
#124 = DIRECTION ( 'NONE',  ( -3.491481338843133355E-15, 1.224646799147353207E-16, -1.000000000000000000 ) ) ;
#125 = DIRECTION ( 'NONE',  ( -4.275831445896958607E-31, -1.000000000000000000, -1.224646799147353207E-16 ) ) ;
#126 = CYLINDRICAL_SURFACE ( 'NONE', #120, 2.849999999999998757 ) ;
#127 = ORIENTED_EDGE ( 'NONE', *, *, #175, .T. ) ;
#128 = ADVANCED_BREP_SHAPE_REPRESENTATION ( '32313', ( #43, #110, #61 ), #109 ) ;
#129 = DIRECTION ( 'NONE',  ( 3.491481338843133355E-15, -1.224646799147353207E-16, 1.000000000000000000 ) ) ;
#130 = EDGE_LOOP ( 'NONE', ( #57 ) ) ;
#131 = CARTESIAN_POINT ( 'NONE',  ( 9.776147748760773395E-14, -3.429011037612589276E-15, 28.00000000000000000 ) ) ;
#132 = PERSON_AND_ORGANIZATION ( #156, #172 ) ;
#133 = FACE_OUTER_BOUND ( 'NONE', #149, .T. ) ;
#134 = CALENDAR_DATE ( 2021, 15, 10 ) ;
#135 = DIRECTION ( 'NONE',  ( 3.491481338843133355E-15, -1.224646799147353207E-16, 1.000000000000000000 ) ) ;
#136 = SECURITY_CLASSIFICATION_LEVEL ( 'unclassified' ) ;
#137 = COORDINATED_UNIVERSAL_TIME_OFFSET ( 1, 0, .AHEAD. ) ;
#138 = PRODUCT_RELATED_PRODUCT_CATEGORY ( 'detail', '', ( #203 ) ) ;
#139 = PERSON_AND_ORGANIZATION_ROLE ( 'creator' ) ;
#140 = CARTESIAN_POINT ( 'NONE',  ( 9.776147748760773395E-14, 2.849999999999992983, 28.00000000000000000 ) ) ;
#141 = APPROVAL_PERSON_ORGANIZATION ( #143, #186, #100 ) ;
#142 = ADVANCED_FACE ( 'NONE', ( #95 ), #14, .F. ) ;
#143 = PERSON_AND_ORGANIZATION ( #156, #172 ) ;
#144 = EDGE_LOOP ( 'NONE', ( #127 ) ) ;
#145 = APPROVAL ( #88, 'UNSPECIFIED' ) ;
#146 = CC_DESIGN_APPROVAL ( #145, ( #181 ) ) ;
#147 = ORIENTED_EDGE ( 'NONE', *, *, #178, .T. ) ;
#148 = APPROVAL_STATUS ( 'not_yet_approved' ) ;
#149 = EDGE_LOOP ( 'NONE', ( #55 ) ) ;
#150 = CIRCLE ( 'NONE', #92, 2.850000000000000977 ) ;
#151 = COORDINATED_UNIVERSAL_TIME_OFFSET ( 1, 0, .AHEAD. ) ;
#152 = DIRECTION ( 'NONE',  ( 4.275831445896958607E-31, 1.000000000000000000, 1.224646799147353207E-16 ) ) ;
#153 = CARTESIAN_POINT ( 'NONE',  ( 9.776147748760773395E-14, 2.137157690293139702E-32, 28.00000000000000000 ) ) ;
#154 = DIRECTION ( 'NONE',  ( -4.275831445896958607E-31, -1.000000000000000000, -1.224646799147353207E-16 ) ) ;
#155 = LOCAL_TIME ( 15, 34, 35.00000000000000000, #191 ) ;
#156 = PERSON ( 'UNSPECIFIED', 'UNSPECIFIED', 'UNSPECIFIED', ('UNSPECIFIED'), ('UNSPECIFIED'), ('UNSPECIFIED') ) ;
#157 = DIRECTION ( 'NONE',  ( 5.406119142139622933E-31, 1.000000000000000000, 1.521687259628781959E-16 ) ) ;
#158 = DIRECTION ( 'NONE',  ( -3.491481338843133355E-15, 1.224646799147353207E-16, -1.000000000000000000 ) ) ;
#159 = CC_DESIGN_PERSON_AND_ORGANIZATION_ASSIGNMENT ( #40, #174, ( #119 ) ) ;
#160 = PERSON_AND_ORGANIZATION_ROLE ( 'design_owner' ) ;
#161 = AXIS2_PLACEMENT_3D ( 'NONE', #93, #10, #35 ) ;
#162 = CALENDAR_DATE ( 2021, 15, 10 ) ;
#163 = VERTEX_POINT ( 'NONE', #140 ) ;
#164 = DATE_AND_TIME ( #114, #155 ) ;
#165 = APPROVAL_PERSON_ORGANIZATION ( #132, #73, #12 ) ;
#166 = DIRECTION ( 'NONE',  ( 4.275831445896959482E-31, 1.000000000000000000, 1.224646799147353454E-16 ) ) ;
#167 = EDGE_LOOP ( 'NONE', ( #180 ) ) ;
#168 = ADVANCED_FACE ( 'NONE', ( #11, #33 ), #196, .T. ) ;
#169 = FACE_OUTER_BOUND ( 'NONE', #72, .T. ) ;
#170 = COORDINATED_UNIVERSAL_TIME_OFFSET ( 1, 0, .AHEAD. ) ;
#171 = PLANE ( 'NONE',  #22 ) ;
#172 = ORGANIZATION ( 'UNSPECIFIED', 'UNSPECIFIED', '' ) ;
#173 =( NAMED_UNIT ( * ) PLANE_ANGLE_UNIT ( ) SI_UNIT ( $, .RADIAN. ) );
#174 = PERSON_AND_ORGANIZATION_ROLE ( 'creator' ) ;
#175 = EDGE_CURVE ( 'NONE', #2, #2, #51, .T. ) ;
#176 = VERTEX_POINT ( 'NONE', #38 ) ;
#177 = APPROVAL_DATE_TIME ( #164, #186 ) ;
#178 = EDGE_CURVE ( 'NONE', #54, #54, #150, .T. ) ;
#179 = FACE_OUTER_BOUND ( 'NONE', #89, .T. ) ;
#180 = ORIENTED_EDGE ( 'NONE', *, *, #79, .F. ) ;
#181 = PRODUCT_DEFINITION_FORMATION_WITH_SPECIFIED_SOURCE ( 'ANY', '', #203, .NOT_KNOWN. ) ;
#182 = UNCERTAINTY_MEASURE_WITH_UNIT (LENGTH_MEASURE( 1.000000000000000082E-05 ), #21, 'distance_accuracy_value', 'NONE');
#183 = CC_DESIGN_PERSON_AND_ORGANIZATION_ASSIGNMENT ( #86, #160, ( #203 ) ) ;
#184 = EDGE_LOOP ( 'NONE', ( #194 ) ) ;
#185 = CARTESIAN_POINT ( 'NONE',  ( 2.304377683636468267E-13, 1.762217744627671468E-32, 66.00000000000000000 ) ) ;
#186 = APPROVAL ( #39, 'UNSPECIFIED' ) ;
#187 = AXIS2_PLACEMENT_3D ( 'NONE', #96, #81, #201 ) ;
#188 = AXIS2_PLACEMENT_3D ( 'NONE', #62, #124, #166 ) ;
#189 = PRODUCT_DEFINITION_SHAPE ( 'NONE', 'NONE',  #119 ) ;
#190 = PERSON_AND_ORGANIZATION ( #156, #172 ) ;
#191 = COORDINATED_UNIVERSAL_TIME_OFFSET ( 1, 0, .AHEAD. ) ;
#192 = APPLICATION_PROTOCOL_DEFINITION ( 'international standard', 'config_control_design', 1994, #82 ) ;
#193 = ADVANCED_FACE ( 'NONE', ( #133, #202 ), #63, .T. ) ;
#194 = ORIENTED_EDGE ( 'NONE', *, *, #69, .T. ) ;
#195 = ORIENTED_EDGE ( 'NONE', *, *, #41, .F. ) ;
#196 = CONICAL_SURFACE ( 'NONE', #187, 2.350000000000001421, 0.7853981633974473908 ) ;
#197 = FACE_OUTER_BOUND ( 'NONE', #144, .T. ) ;
#198 = CARTESIAN_POINT ( 'NONE',  ( 2.304377683636468267E-13, -8.082668874372532400E-15, 66.00000000000000000 ) ) ;
#199 = DATE_AND_TIME ( #134, #42 ) ;
#200 = CONICAL_SURFACE ( 'NONE', #58, 2.849999999999992983, 1.221730476396026610 ) ;
#201 = DIRECTION ( 'NONE',  ( 0.0000000000000000000, 1.000000000000000000, 0.0000000000000000000 ) ) ;
#202 = FACE_OUTER_BOUND ( 'NONE', #184, .T. ) ;
#203 = PRODUCT ( '32313', '32313', '', ( #97 ) ) ;
ENDSEC;
END-ISO-10303-21;
