ISO-10303-21;
HEADER;
FILE_DESCRIPTION (( 'STEP AP203' ),
    '1' );
FILE_NAME ('32312.step',
    '2021-10-15T13:34:34',
    ( '' ),
    ( '' ),
    'SwSTEP 2.0',
    'SolidWorks 2019',
    '' );
FILE_SCHEMA (( 'CONFIG_CONTROL_DESIGN' ));
ENDSEC;

DATA;
#1 = CARTESIAN_POINT ( 'NONE',  ( 2.986368909961833971E-15, 2.349999999999993427, 0.8553300505255848618 ) ) ;
#2 = DIRECTION ( 'NONE',  ( -3.491481338843133355E-15, 1.224646799147353207E-16, -1.000000000000000000 ) ) ;
#3 = ADVANCED_FACE ( 'NONE', ( #196 ), #139, .F. ) ;
#4 = DIRECTION ( 'NONE',  ( -3.491481338843133355E-15, 1.224646799147353207E-16, -1.000000000000000000 ) ) ;
#5 = AXIS2_PLACEMENT_3D ( 'NONE', #92, #61, #148 ) ;
#6 = DIRECTION ( 'NONE',  ( -4.275831445896958607E-31, -1.000000000000000000, -1.224646799147353207E-16 ) ) ;
#7 = DATE_AND_TIME ( #60, #112 ) ;
#8 = ADVANCED_FACE ( 'NONE', ( #111 ), #37, .T. ) ;
#9 = CC_DESIGN_APPROVAL ( #80, ( #178 ) ) ;
#10 = PERSON_AND_ORGANIZATION ( #158, #99 ) ;
#11 = APPROVAL_DATE_TIME ( #40, #28 ) ;
#12 = PERSON_AND_ORGANIZATION ( #158, #99 ) ;
#13 = CIRCLE ( 'NONE', #108, 2.350000000000000533 ) ;
#14 = CALENDAR_DATE ( 2021, 15, 10 ) ;
#15 = ORIENTED_EDGE ( 'NONE', *, *, #102, .T. ) ;
#16 = ORIENTED_EDGE ( 'NONE', *, *, #105, .F. ) ;
#17 = DIRECTION ( 'NONE',  ( 3.491481338843133355E-15, -1.224646799147353207E-16, 1.000000000000000000 ) ) ;
#18 = CARTESIAN_POINT ( 'NONE',  ( 2.007601769834801742E-13, 2.349999999999993427, 57.50000000000000000 ) ) ;
#19 = DIRECTION ( 'NONE',  ( -3.491481338843133355E-15, 1.224646799147353207E-16, -1.000000000000000000 ) ) ;
#20 = APPLICATION_CONTEXT ( 'configuration controlled 3d designs of mechanical parts and assemblies' ) ;
#21 = FACE_OUTER_BOUND ( 'NONE', #199, .T. ) ;
#22 = CARTESIAN_POINT ( 'NONE',  ( 2.025059176529017346E-13, 1.387277798962208161E-32, 58.00000000000000000 ) ) ;
#23 = PERSON_AND_ORGANIZATION_ROLE ( 'design_owner' ) ;
#24 = EDGE_CURVE ( 'NONE', #189, #189, #157, .T. ) ;
#25 = SECURITY_CLASSIFICATION_LEVEL ( 'unclassified' ) ;
#26 = MECHANICAL_CONTEXT ( 'NONE', #20, 'mechanical' ) ;
#27 = AXIS2_PLACEMENT_3D ( 'NONE', #185, #2, #34 ) ;
#28 = APPROVAL ( #39, 'UNSPECIFIED' ) ;
#29 = CARTESIAN_POINT ( 'NONE',  ( 2.986368909961832788E-15, -1.047477208590700977E-16, 0.8553300505255845287 ) ) ;
#30 = EDGE_LOOP ( 'NONE', ( #200 ) ) ;
#31 = APPROVAL_PERSON_ORGANIZATION ( #165, #80, #42 ) ;
#32 = CARTESIAN_POINT ( 'NONE',  ( 8.379555213223520053E-14, 1.762217744627675847E-32, 24.00000000000000000 ) ) ;
#33 = FACE_OUTER_BOUND ( 'NONE', #95, .T. ) ;
#34 = DIRECTION ( 'NONE',  ( 0.0000000000000000000, 1.000000000000000000, 0.0000000000000000000 ) ) ;
#35 =( NAMED_UNIT ( * ) PLANE_ANGLE_UNIT ( ) SI_UNIT ( $, .RADIAN. ) );
#36 = DIRECTION ( 'NONE',  ( -3.491481338843133355E-15, 1.224646799147353207E-16, -1.000000000000000000 ) ) ;
#37 = CONICAL_SURFACE ( 'NONE', #70, 2.349999999999993427, 1.221730476396026388 ) ;
#38 = ADVANCED_FACE ( 'NONE', ( #21, #186 ), #52, .T. ) ;
#39 = APPROVAL_STATUS ( 'not_yet_approved' ) ;
#40 = DATE_AND_TIME ( #106, #47 ) ;
#41 = AXIS2_PLACEMENT_3D ( 'NONE', #100, #4, #115 ) ;
#42 = APPROVAL_ROLE ( '' ) ;
#43 = DATE_TIME_ROLE ( 'creation_date' ) ;
#44 = EDGE_LOOP ( 'NONE', ( #172 ) ) ;
#45 = ORIENTED_EDGE ( 'NONE', *, *, #91, .F. ) ;
#46 = CC_DESIGN_DATE_AND_TIME_ASSIGNMENT ( #192, #120, ( #90 ) ) ;
#47 = LOCAL_TIME ( 15, 34, 34.00000000000000000, #147 ) ;
#48 = EDGE_LOOP ( 'NONE', ( #82 ) ) ;
#49 = DIRECTION ( 'NONE',  ( -3.491481338843133355E-15, 1.224646799147353207E-16, -1.000000000000000000 ) ) ;
#50 = CC_DESIGN_DATE_AND_TIME_ASSIGNMENT ( #135, #43, ( #203 ) ) ;
#51 = DIRECTION ( 'NONE',  ( -3.491481338843133355E-15, 1.224646799147353207E-16, -1.000000000000000000 ) ) ;
#52 = CYLINDRICAL_SURFACE ( 'NONE', #57, 2.349999999999995204 ) ;
#53 = PLANE ( 'NONE',  #181 ) ;
#54 = CARTESIAN_POINT ( 'NONE',  ( 2.025059176529017346E-13, 1.849999999999993650, 58.00000000000000000 ) ) ;
#55 = ADVANCED_FACE ( 'NONE', ( #33 ), #85, .T. ) ;
#56 = APPLICATION_PROTOCOL_DEFINITION ( 'international standard', 'config_control_design', 1994, #109 ) ;
#57 = AXIS2_PLACEMENT_3D ( 'NONE', #68, #162, #73 ) ;
#58 = PERSON_AND_ORGANIZATION ( #158, #99 ) ;
#59 = ADVANCED_FACE ( 'NONE', ( #84, #101 ), #126, .T. ) ;
#60 = CALENDAR_DATE ( 2021, 15, 10 ) ;
#61 = DIRECTION ( 'NONE',  ( 0.0000000000000000000, 0.0000000000000000000, 1.000000000000000000 ) ) ;
#62 = LOCAL_TIME ( 15, 34, 34.00000000000000000, #183 ) ;
#63 = DIRECTION ( 'NONE',  ( -4.917267943116360182E-31, -1.000000000000000000, -1.384087879768732815E-16 ) ) ;
#64 = AXIS2_PLACEMENT_3D ( 'NONE', #156, #17, #6 ) ;
#65 = MANIFOLD_SOLID_BREP ( 'Corps-Déplacer/Copier1[2]', #198 ) ;
#66 = ORIENTED_EDGE ( 'NONE', *, *, #24, .T. ) ;
#67 = AXIS2_PLACEMENT_3D ( 'NONE', #116, #146, #188 ) ;
#68 = CARTESIAN_POINT ( 'NONE',  ( 0.0000000000000000000, 0.0000000000000000000, 0.0000000000000000000 ) ) ;
#69 = FACE_OUTER_BOUND ( 'NONE', #169, .T. ) ;
#70 = AXIS2_PLACEMENT_3D ( 'NONE', #29, #155, #63 ) ;
#71 = PRODUCT ( '32312', '32312', '', ( #26 ) ) ;
#72 = FACE_OUTER_BOUND ( 'NONE', #202, .T. ) ;
#73 = DIRECTION ( 'NONE',  ( 4.275831445896958607E-31, 1.000000000000000000, 1.224646799147353207E-16 ) ) ;
#74 = APPROVAL_DATE_TIME ( #180, #110 ) ;
#75 = LOCAL_TIME ( 15, 34, 34.00000000000000000, #77 ) ;
#76 = CIRCLE ( 'NONE', #27, 2.349999999999996536 ) ;
#77 = COORDINATED_UNIVERSAL_TIME_OFFSET ( 1, 0, .AHEAD. ) ;
#78 = APPROVAL_STATUS ( 'not_yet_approved' ) ;
#79 = LOCAL_TIME ( 15, 34, 34.00000000000000000, #137 ) ;
#80 = APPROVAL ( #78, 'UNSPECIFIED' ) ;
#81 = EDGE_LOOP ( 'NONE', ( #94 ) ) ;
#82 = ORIENTED_EDGE ( 'NONE', *, *, #91, .T. ) ;
#83 = AXIS2_PLACEMENT_3D ( 'NONE', #144, #19, #175 ) ;
#84 = FACE_OUTER_BOUND ( 'NONE', #81, .T. ) ;
#85 = PLANE ( 'NONE',  #64 ) ;
#86 = CC_DESIGN_PERSON_AND_ORGANIZATION_ASSIGNMENT ( #12, #153, ( #178 ) ) ;
#87 = AXIS2_PLACEMENT_3D ( 'NONE', #131, #103, #177 ) ;
#88 = CARTESIAN_POINT ( 'NONE',  ( 2.986368909961832788E-15, -1.047477208590700977E-16, 0.8553300505255845287 ) ) ;
#89 = APPLICATION_PROTOCOL_DEFINITION ( 'international standard', 'config_control_design', 1994, #20 ) ;
#90 = SECURITY_CLASSIFICATION ( '', '', #25 ) ;
#91 = EDGE_CURVE ( 'NONE', #173, #173, #171, .T. ) ;
#92 = CARTESIAN_POINT ( 'NONE',  ( 0.0000000000000000000, 0.0000000000000000000, 0.0000000000000000000 ) ) ;
#93 = APPROVAL_PERSON_ORGANIZATION ( #194, #110, #107 ) ;
#94 = ORIENTED_EDGE ( 'NONE', *, *, #138, .F. ) ;
#95 = EDGE_LOOP ( 'NONE', ( #16 ) ) ;
#96 = CC_DESIGN_APPROVAL ( #28, ( #203 ) ) ;
#97 = DIRECTION ( 'NONE',  ( 3.491481338843133355E-15, -1.224646799147353207E-16, 1.000000000000000000 ) ) ;
#98 = VERTEX_POINT ( 'NONE', #18 ) ;
#99 = ORGANIZATION ( 'UNSPECIFIED', 'UNSPECIFIED', '' ) ;
#100 = CARTESIAN_POINT ( 'NONE',  ( 0.0000000000000000000, 0.0000000000000000000, 0.0000000000000000000 ) ) ;
#101 = FACE_BOUND ( 'NONE', #113, .T. ) ;
#102 = EDGE_CURVE ( 'NONE', #130, #130, #154, .T. ) ;
#103 = DIRECTION ( 'NONE',  ( -3.491481338843133355E-15, 1.224646799147353207E-16, -1.000000000000000000 ) ) ;
#104 =( GEOMETRIC_REPRESENTATION_CONTEXT ( 3 ) GLOBAL_UNCERTAINTY_ASSIGNED_CONTEXT ( ( #164 ) ) GLOBAL_UNIT_ASSIGNED_CONTEXT ( ( #145, #35, #161 ) ) REPRESENTATION_CONTEXT ( 'NONE', 'WORKASPACE' ) );
#105 = EDGE_CURVE ( 'NONE', #117, #117, #76, .T. ) ;
#106 = CALENDAR_DATE ( 2021, 15, 10 ) ;
#107 = APPROVAL_ROLE ( '' ) ;
#108 = AXIS2_PLACEMENT_3D ( 'NONE', #128, #49, #143 ) ;
#109 = APPLICATION_CONTEXT ( 'configuration controlled 3d designs of mechanical parts and assemblies' ) ;
#110 = APPROVAL ( #119, 'UNSPECIFIED' ) ;
#111 = FACE_OUTER_BOUND ( 'NONE', #48, .T. ) ;
#112 = LOCAL_TIME ( 15, 34, 34.00000000000000000, #122 ) ;
#113 = EDGE_LOOP ( 'NONE', ( #15 ) ) ;
#114 = CYLINDRICAL_SURFACE ( 'NONE', #41, 2.349999999999998757 ) ;
#115 = DIRECTION ( 'NONE',  ( 4.275831445896958607E-31, 1.000000000000000000, 1.224646799147353207E-16 ) ) ;
#116 = CARTESIAN_POINT ( 'NONE',  ( 8.379555213223520053E-14, -2.939152317953647894E-15, 24.00000000000000000 ) ) ;
#117 = VERTEX_POINT ( 'NONE', #118 ) ;
#118 = CARTESIAN_POINT ( 'NONE',  ( 8.379555213223520053E-14, 2.349999999999993427, 24.00000000000000000 ) ) ;
#119 = APPROVAL_STATUS ( 'not_yet_approved' ) ;
#120 = DATE_TIME_ROLE ( 'classification_date' ) ;
#121 = CC_DESIGN_PERSON_AND_ORGANIZATION_ASSIGNMENT ( #10, #150, ( #203 ) ) ;
#122 = COORDINATED_UNIVERSAL_TIME_OFFSET ( 1, 0, .AHEAD. ) ;
#123 = ADVANCED_BREP_SHAPE_REPRESENTATION ( '32312', ( #193, #65, #5 ), #104 ) ;
#124 = CLOSED_SHELL ( 'NONE', ( #3, #149, #59, #152 ) ) ;
#125 = EDGE_LOOP ( 'NONE', ( #66 ) ) ;
#126 = CONICAL_SURFACE ( 'NONE', #87, 1.850000000000000755, 0.7853981633974476129 ) ;
#127 = ORIENTED_EDGE ( 'NONE', *, *, #24, .F. ) ;
#128 = CARTESIAN_POINT ( 'NONE',  ( 2.007601769834801742E-13, -7.041719095097280485E-15, 57.50000000000000000 ) ) ;
#129 = DIRECTION ( 'NONE',  ( 4.275831445896958607E-31, 1.000000000000000000, 1.224646799147353207E-16 ) ) ;
#130 = VERTEX_POINT ( 'NONE', #54 ) ;
#131 = CARTESIAN_POINT ( 'NONE',  ( 2.025059176529017346E-13, -7.102951435054648059E-15, 58.00000000000000000 ) ) ;
#132 = PERSON_AND_ORGANIZATION ( #158, #99 ) ;
#133 = AXIS2_PLACEMENT_3D ( 'NONE', #32, #97, #141 ) ;
#134 = PERSON_AND_ORGANIZATION_ROLE ( 'design_supplier' ) ;
#135 = DATE_AND_TIME ( #14, #75 ) ;
#136 = DESIGN_CONTEXT ( 'detailed design', #109, 'design' ) ;
#137 = COORDINATED_UNIVERSAL_TIME_OFFSET ( 1, 0, .AHEAD. ) ;
#138 = EDGE_CURVE ( 'NONE', #98, #98, #13, .T. ) ;
#139 = PLANE ( 'NONE',  #133 ) ;
#140 = CC_DESIGN_PERSON_AND_ORGANIZATION_ASSIGNMENT ( #151, #191, ( #90 ) ) ;
#141 = DIRECTION ( 'NONE',  ( -4.275831445896958607E-31, -1.000000000000000000, -1.224646799147353207E-16 ) ) ;
#142 = DIRECTION ( 'NONE',  ( 4.917267943116360182E-31, 1.000000000000000000, 1.384087879768732815E-16 ) ) ;
#143 = DIRECTION ( 'NONE',  ( 0.0000000000000000000, 1.000000000000000000, 0.0000000000000000000 ) ) ;
#144 = CARTESIAN_POINT ( 'NONE',  ( 2.025059176529017346E-13, -7.102951435054648059E-15, 58.00000000000000000 ) ) ;
#145 =( LENGTH_UNIT ( ) NAMED_UNIT ( * ) SI_UNIT ( .MILLI., .METRE. ) );
#146 = DIRECTION ( 'NONE',  ( -3.491481338843133355E-15, 1.224646799147353207E-16, -1.000000000000000000 ) ) ;
#147 = COORDINATED_UNIVERSAL_TIME_OFFSET ( 1, 0, .AHEAD. ) ;
#148 = DIRECTION ( 'NONE',  ( 1.000000000000000000, 0.0000000000000000000, 0.0000000000000000000 ) ) ;
#149 = ADVANCED_FACE ( 'NONE', ( #72, #69 ), #114, .T. ) ;
#150 = PERSON_AND_ORGANIZATION_ROLE ( 'creator' ) ;
#151 = PERSON_AND_ORGANIZATION ( #158, #99 ) ;
#152 = ADVANCED_FACE ( 'NONE', ( #159 ), #53, .F. ) ;
#153 = PERSON_AND_ORGANIZATION_ROLE ( 'creator' ) ;
#154 = CIRCLE ( 'NONE', #83, 1.850000000000000755 ) ;
#155 = DIRECTION ( 'NONE',  ( 3.491481338843133355E-15, -1.224646799147353207E-16, 1.000000000000000000 ) ) ;
#156 = CARTESIAN_POINT ( 'NONE',  ( 8.379555213223520053E-14, 1.762217744627675847E-32, 24.00000000000000000 ) ) ;
#157 = CIRCLE ( 'NONE', #67, 2.349999999999996536 ) ;
#158 = PERSON ( 'UNSPECIFIED', 'UNSPECIFIED', 'UNSPECIFIED', ('UNSPECIFIED'), ('UNSPECIFIED'), ('UNSPECIFIED') ) ;
#159 = FACE_OUTER_BOUND ( 'NONE', #44, .T. ) ;
#160 = CARTESIAN_POINT ( 'NONE',  ( 8.379555213223520053E-14, 2.349999999999993427, 24.00000000000000000 ) ) ;
#161 =( NAMED_UNIT ( * ) SI_UNIT ( $, .STERADIAN. ) SOLID_ANGLE_UNIT ( ) );
#162 = DIRECTION ( 'NONE',  ( -3.491481338843133355E-15, 1.224646799147353207E-16, -1.000000000000000000 ) ) ;
#163 = PERSON_AND_ORGANIZATION ( #158, #99 ) ;
#164 = UNCERTAINTY_MEASURE_WITH_UNIT (LENGTH_MEASURE( 1.000000000000000082E-05 ), #145, 'distance_accuracy_value', 'NONE');
#165 = PERSON_AND_ORGANIZATION ( #158, #99 ) ;
#166 = APPROVAL_DATE_TIME ( #7, #80 ) ;
#167 = APPROVAL_ROLE ( '' ) ;
#168 = CC_DESIGN_SECURITY_CLASSIFICATION ( #90, ( #178 ) ) ;
#169 = EDGE_LOOP ( 'NONE', ( #170 ) ) ;
#170 = ORIENTED_EDGE ( 'NONE', *, *, #138, .T. ) ;
#171 = CIRCLE ( 'NONE', #184, 2.349999999999993427 ) ;
#172 = ORIENTED_EDGE ( 'NONE', *, *, #102, .F. ) ;
#173 = VERTEX_POINT ( 'NONE', #1 ) ;
#174 = APPROVAL_PERSON_ORGANIZATION ( #58, #28, #167 ) ;
#175 = DIRECTION ( 'NONE',  ( 0.0000000000000000000, 1.000000000000000000, 0.0000000000000000000 ) ) ;
#176 = CC_DESIGN_PERSON_AND_ORGANIZATION_ASSIGNMENT ( #132, #134, ( #178 ) ) ;
#177 = DIRECTION ( 'NONE',  ( 0.0000000000000000000, 1.000000000000000000, 0.0000000000000000000 ) ) ;
#178 = PRODUCT_DEFINITION_FORMATION_WITH_SPECIFIED_SOURCE ( 'ANY', '', #71, .NOT_KNOWN. ) ;
#179 = SHAPE_DEFINITION_REPRESENTATION ( #187, #123 ) ;
#180 = DATE_AND_TIME ( #190, #79 ) ;
#181 = AXIS2_PLACEMENT_3D ( 'NONE', #22, #51, #129 ) ;
#182 = CALENDAR_DATE ( 2021, 15, 10 ) ;
#183 = COORDINATED_UNIVERSAL_TIME_OFFSET ( 1, 0, .AHEAD. ) ;
#184 = AXIS2_PLACEMENT_3D ( 'NONE', #88, #36, #142 ) ;
#185 = CARTESIAN_POINT ( 'NONE',  ( 8.379555213223520053E-14, -2.939152317953647894E-15, 24.00000000000000000 ) ) ;
#186 = FACE_OUTER_BOUND ( 'NONE', #30, .T. ) ;
#187 = PRODUCT_DEFINITION_SHAPE ( 'NONE', 'NONE',  #203 ) ;
#188 = DIRECTION ( 'NONE',  ( 0.0000000000000000000, 1.000000000000000000, 0.0000000000000000000 ) ) ;
#189 = VERTEX_POINT ( 'NONE', #160 ) ;
#190 = CALENDAR_DATE ( 2021, 15, 10 ) ;
#191 = PERSON_AND_ORGANIZATION_ROLE ( 'classification_officer' ) ;
#192 = DATE_AND_TIME ( #182, #62 ) ;
#193 = MANIFOLD_SOLID_BREP ( 'Corps-Déplacer/Copier1[1]', #124 ) ;
#194 = PERSON_AND_ORGANIZATION ( #158, #99 ) ;
#195 = PRODUCT_RELATED_PRODUCT_CATEGORY ( 'detail', '', ( #71 ) ) ;
#196 = FACE_OUTER_BOUND ( 'NONE', #125, .T. ) ;
#197 = CC_DESIGN_PERSON_AND_ORGANIZATION_ASSIGNMENT ( #163, #23, ( #71 ) ) ;
#198 = CLOSED_SHELL ( 'NONE', ( #8, #38, #55 ) ) ;
#199 = EDGE_LOOP ( 'NONE', ( #45 ) ) ;
#200 = ORIENTED_EDGE ( 'NONE', *, *, #105, .T. ) ;
#201 = CC_DESIGN_APPROVAL ( #110, ( #90 ) ) ;
#202 = EDGE_LOOP ( 'NONE', ( #127 ) ) ;
#203 = PRODUCT_DEFINITION ( 'UNKNOWN', '', #178, #136 ) ;
ENDSEC;
END-ISO-10303-21;
