ISO-10303-21;
HEADER;
FILE_DESCRIPTION (( 'STEP AP203' ),
    '1' );
FILE_NAME ('32311.step',
    '2021-10-15T13:34:33',
    ( '' ),
    ( '' ),
    'SwSTEP 2.0',
    'SolidWorks 2019',
    '' );
FILE_SCHEMA (( 'CONFIG_CONTROL_DESIGN' ));
ENDSEC;

DATA;
#1 = ORGANIZATION ( 'UNSPECIFIED', 'UNSPECIFIED', '' ) ;
#2 = DIRECTION ( 'NONE',  ( 3.491481338843133355E-15, -1.224646799147353454E-16, 1.000000000000000000 ) ) ;
#3 = CIRCLE ( 'NONE', #61, 1.849999999999992983 ) ;
#4 = EDGE_LOOP ( 'NONE', ( #62 ) ) ;
#5 = DIRECTION ( 'NONE',  ( 4.275831445896959482E-31, 1.000000000000000000, 1.224646799147353454E-16 ) ) ;
#6 = CARTESIAN_POINT ( 'NONE',  ( 6.982962677686266711E-14, -2.449293598294706907E-15, 20.00000000000000000 ) ) ;
#7 = UNCERTAINTY_MEASURE_WITH_UNIT (LENGTH_MEASURE( 1.000000000000000082E-05 ), #8, 'distance_accuracy_value', 'NONE');
#8 =( LENGTH_UNIT ( ) NAMED_UNIT ( * ) SI_UNIT ( .MILLI., .METRE. ) );
#9 = CARTESIAN_POINT ( 'NONE',  ( 6.982962677686266711E-14, -2.449293598294706907E-15, 20.00000000000000000 ) ) ;
#10 = FACE_OUTER_BOUND ( 'NONE', #142, .T. ) ;
#11 = APPROVAL_ROLE ( '' ) ;
#12 = DATE_AND_TIME ( #188, #48 ) ;
#13 = PERSON ( 'UNSPECIFIED', 'UNSPECIFIED', 'UNSPECIFIED', ('UNSPECIFIED'), ('UNSPECIFIED'), ('UNSPECIFIED') ) ;
#14 = APPLICATION_PROTOCOL_DEFINITION ( 'international standard', 'config_control_design', 1994, #102 ) ;
#15 = COORDINATED_UNIVERSAL_TIME_OFFSET ( 1, 0, .AHEAD. ) ;
#16 = AXIS2_PLACEMENT_3D ( 'NONE', #9, #22, #116 ) ;
#17 = PRODUCT_DEFINITION ( 'UNKNOWN', '', #181, #165 ) ;
#18 = ORIENTED_EDGE ( 'NONE', *, *, #123, .F. ) ;
#19 = EDGE_LOOP ( 'NONE', ( #32 ) ) ;
#20 = APPROVAL_PERSON_ORGANIZATION ( #172, #203, #41 ) ;
#21 = CARTESIAN_POINT ( 'NONE',  ( 1.815570296198429345E-13, -6.368163355566237959E-15, 52.00000000000000000 ) ) ;
#22 = DIRECTION ( 'NONE',  ( -3.491481338843133355E-15, 1.224646799147353454E-16, -1.000000000000000000 ) ) ;
#23 = APPROVAL_PERSON_ORGANIZATION ( #43, #168, #26 ) ;
#24 = CARTESIAN_POINT ( 'NONE',  ( 2.350971269544416051E-15, -8.246097174011882239E-17, 0.6733449333924798053 ) ) ;
#25 = ADVANCED_FACE ( 'NONE', ( #111 ), #145, .T. ) ;
#26 = APPROVAL_ROLE ( '' ) ;
#27 = PERSON_AND_ORGANIZATION ( #13, #1 ) ;
#28 = PERSON_AND_ORGANIZATION_ROLE ( 'design_owner' ) ;
#29 = CC_DESIGN_DATE_AND_TIME_ASSIGNMENT ( #12, #77, ( #17 ) ) ;
#30 = AXIS2_PLACEMENT_3D ( 'NONE', #198, #133, #67 ) ;
#31 = AXIS2_PLACEMENT_3D ( 'NONE', #75, #104, #171 ) ;
#32 = ORIENTED_EDGE ( 'NONE', *, *, #175, .F. ) ;
#33 = CC_DESIGN_PERSON_AND_ORGANIZATION_ASSIGNMENT ( #138, #73, ( #181 ) ) ;
#34 = ORIENTED_EDGE ( 'NONE', *, *, #156, .T. ) ;
#35 = AXIS2_PLACEMENT_3D ( 'NONE', #110, #194, #49 ) ;
#36 = CYLINDRICAL_SURFACE ( 'NONE', #162, 1.849999999999991873 ) ;
#37 = VERTEX_POINT ( 'NONE', #164 ) ;
#38 =( NAMED_UNIT ( * ) SI_UNIT ( $, .STERADIAN. ) SOLID_ANGLE_UNIT ( ) );
#39 = CONICAL_SURFACE ( 'NONE', #189, 1.449999999999996847, 0.7853981633974426169 ) ;
#40 = DIRECTION ( 'NONE',  ( -3.491481338843133355E-15, 1.224646799147353454E-16, -1.000000000000000000 ) ) ;
#41 = APPROVAL_ROLE ( '' ) ;
#42 = ADVANCED_FACE ( 'NONE', ( #47, #66 ), #176, .T. ) ;
#43 = PERSON_AND_ORGANIZATION ( #13, #1 ) ;
#44 = COORDINATED_UNIVERSAL_TIME_OFFSET ( 1, 0, .AHEAD. ) ;
#45 = APPROVAL_STATUS ( 'not_yet_approved' ) ;
#46 = DATE_AND_TIME ( #59, #192 ) ;
#47 = FACE_OUTER_BOUND ( 'NONE', #159, .T. ) ;
#48 = LOCAL_TIME ( 15, 34, 33.00000000000000000, #15 ) ;
#49 = DIRECTION ( 'NONE',  ( 4.275831445896959482E-31, 1.000000000000000000, 1.224646799147353454E-16 ) ) ;
#50 = DIRECTION ( 'NONE',  ( -4.275831445896959482E-31, -1.000000000000000000, -1.224646799147353454E-16 ) ) ;
#51 = DIRECTION ( 'NONE',  ( 4.275831445896959482E-31, 1.000000000000000000, 1.224646799147353454E-16 ) ) ;
#52 = LOCAL_TIME ( 15, 34, 33.00000000000000000, #92 ) ;
#53 = DIRECTION ( 'NONE',  ( 0.0000000000000000000, 1.000000000000000000, 0.0000000000000000000 ) ) ;
#54 = DIRECTION ( 'NONE',  ( -3.491481338843133355E-15, 1.224646799147353454E-16, -1.000000000000000000 ) ) ;
#55 = DIRECTION ( 'NONE',  ( -3.491481338843133355E-15, 1.224646799147353454E-16, -1.000000000000000000 ) ) ;
#56 = DIRECTION ( 'NONE',  ( -3.491481338843133355E-15, 1.224646799147353454E-16, -1.000000000000000000 ) ) ;
#57 = PERSON_AND_ORGANIZATION ( #13, #1 ) ;
#58 = SHAPE_DEFINITION_REPRESENTATION ( #95, #87 ) ;
#59 = CALENDAR_DATE ( 2021, 15, 10 ) ;
#60 = SECURITY_CLASSIFICATION_LEVEL ( 'unclassified' ) ;
#61 = AXIS2_PLACEMENT_3D ( 'NONE', #6, #70, #184 ) ;
#62 = ORIENTED_EDGE ( 'NONE', *, *, #183, .F. ) ;
#63 = EDGE_LOOP ( 'NONE', ( #18 ) ) ;
#64 = EDGE_LOOP ( 'NONE', ( #190 ) ) ;
#65 = AXIS2_PLACEMENT_3D ( 'NONE', #146, #196, #99 ) ;
#66 = FACE_OUTER_BOUND ( 'NONE', #161, .T. ) ;
#67 = DIRECTION ( 'NONE',  ( -4.164172852729179455E-31, -1.000000000000000000, -1.172110456741091744E-16 ) ) ;
#68 = DIRECTION ( 'NONE',  ( -3.491481338843133355E-15, 1.224646799147353454E-16, -1.000000000000000000 ) ) ;
#69 =( NAMED_UNIT ( * ) PLANE_ANGLE_UNIT ( ) SI_UNIT ( $, .RADIAN. ) );
#70 = DIRECTION ( 'NONE',  ( -3.491481338843133355E-15, 1.224646799147353454E-16, -1.000000000000000000 ) ) ;
#71 = DIRECTION ( 'NONE',  ( 3.491481338843133355E-15, -1.224646799147353454E-16, 1.000000000000000000 ) ) ;
#72 = AXIS2_PLACEMENT_3D ( 'NONE', #179, #55, #51 ) ;
#73 = PERSON_AND_ORGANIZATION_ROLE ( 'creator' ) ;
#74 = APPROVAL_STATUS ( 'not_yet_approved' ) ;
#75 = CARTESIAN_POINT ( 'NONE',  ( 0.0000000000000000000, 0.0000000000000000000, 0.0000000000000000000 ) ) ;
#76 = CC_DESIGN_APPROVAL ( #168, ( #17 ) ) ;
#77 = DATE_TIME_ROLE ( 'creation_date' ) ;
#78 = APPROVAL_DATE_TIME ( #93, #168 ) ;
#79 = AXIS2_PLACEMENT_3D ( 'NONE', #128, #2, #50 ) ;
#80 = ADVANCED_FACE ( 'NONE', ( #10 ), #167, .T. ) ;
#81 = EDGE_LOOP ( 'NONE', ( #34 ) ) ;
#82 = CC_DESIGN_PERSON_AND_ORGANIZATION_ASSIGNMENT ( #57, #28, ( #158 ) ) ;
#83 = ORIENTED_EDGE ( 'NONE', *, *, #123, .T. ) ;
#84 = CC_DESIGN_APPROVAL ( #203, ( #149 ) ) ;
#85 = FACE_OUTER_BOUND ( 'NONE', #64, .T. ) ;
#86 = FACE_OUTER_BOUND ( 'NONE', #160, .T. ) ;
#87 = ADVANCED_BREP_SHAPE_REPRESENTATION ( '32311', ( #191, #117, #31 ), #115 ) ;
#88 = PLANE ( 'NONE',  #129 ) ;
#89 = VERTEX_POINT ( 'NONE', #150 ) ;
#90 = CIRCLE ( 'NONE', #94, 1.849999999999990541 ) ;
#91 = COORDINATED_UNIVERSAL_TIME_OFFSET ( 1, 0, .AHEAD. ) ;
#92 = COORDINATED_UNIVERSAL_TIME_OFFSET ( 1, 0, .AHEAD. ) ;
#93 = DATE_AND_TIME ( #185, #113 ) ;
#94 = AXIS2_PLACEMENT_3D ( 'NONE', #24, #40, #199 ) ;
#95 = PRODUCT_DEFINITION_SHAPE ( 'NONE', 'NONE',  #17 ) ;
#96 = ORIENTED_EDGE ( 'NONE', *, *, #112, .F. ) ;
#97 = ADVANCED_FACE ( 'NONE', ( #152, #86 ), #36, .T. ) ;
#98 = AXIS2_PLACEMENT_3D ( 'NONE', #21, #68, #163 ) ;
#99 = DIRECTION ( 'NONE',  ( 0.0000000000000000000, 1.000000000000000000, 0.0000000000000000000 ) ) ;
#100 = VERTEX_POINT ( 'NONE', #118 ) ;
#101 = CARTESIAN_POINT ( 'NONE',  ( 1.801604370843056559E-13, 1.849999999999990541, 51.59999999999999432 ) ) ;
#102 = APPLICATION_CONTEXT ( 'configuration controlled 3d designs of mechanical parts and assemblies' ) ;
#103 = APPROVAL_STATUS ( 'not_yet_approved' ) ;
#104 = DIRECTION ( 'NONE',  ( 0.0000000000000000000, 0.0000000000000000000, 1.000000000000000000 ) ) ;
#105 = APPLICATION_PROTOCOL_DEFINITION ( 'international standard', 'config_control_design', 1994, #193 ) ;
#106 = DATE_TIME_ROLE ( 'classification_date' ) ;
#107 = ADVANCED_FACE ( 'NONE', ( #85 ), #151, .F. ) ;
#108 = APPROVAL ( #74, 'UNSPECIFIED' ) ;
#109 = CC_DESIGN_SECURITY_CLASSIFICATION ( #149, ( #181 ) ) ;
#110 = CARTESIAN_POINT ( 'NONE',  ( 0.0000000000000000000, 0.0000000000000000000, 0.0000000000000000000 ) ) ;
#111 = FACE_OUTER_BOUND ( 'NONE', #63, .T. ) ;
#112 = EDGE_CURVE ( 'NONE', #37, #37, #154, .T. ) ;
#113 = LOCAL_TIME ( 15, 34, 33.00000000000000000, #91 ) ;
#114 = CARTESIAN_POINT ( 'NONE',  ( 1.815570296198429345E-13, -6.368163355566237959E-15, 52.00000000000000000 ) ) ;
#115 =( GEOMETRIC_REPRESENTATION_CONTEXT ( 3 ) GLOBAL_UNCERTAINTY_ASSIGNED_CONTEXT ( ( #7 ) ) GLOBAL_UNIT_ASSIGNED_CONTEXT ( ( #8, #69, #38 ) ) REPRESENTATION_CONTEXT ( 'NONE', 'WORKASPACE' ) );
#116 = DIRECTION ( 'NONE',  ( 0.0000000000000000000, 1.000000000000000000, 0.0000000000000000000 ) ) ;
#117 = MANIFOLD_SOLID_BREP ( 'Corps-Déplacer/Copier1[2]', #173 ) ;
#118 = CARTESIAN_POINT ( 'NONE',  ( 6.982962677686266711E-14, 1.849999999999990541, 20.00000000000000000 ) ) ;
#119 = APPROVAL_PERSON_ORGANIZATION ( #155, #108, #11 ) ;
#120 = PERSON_AND_ORGANIZATION_ROLE ( 'classification_officer' ) ;
#121 = CIRCLE ( 'NONE', #65, 1.849999999999996758 ) ;
#122 = CALENDAR_DATE ( 2021, 15, 10 ) ;
#123 = EDGE_CURVE ( 'NONE', #100, #100, #3, .T. ) ;
#124 = MECHANICAL_CONTEXT ( 'NONE', #102, 'mechanical' ) ;
#125 = PERSON_AND_ORGANIZATION_ROLE ( 'creator' ) ;
#126 = LOCAL_TIME ( 15, 34, 33.00000000000000000, #44 ) ;
#127 = ORIENTED_EDGE ( 'NONE', *, *, #183, .T. ) ;
#128 = CARTESIAN_POINT ( 'NONE',  ( 6.982962677686266711E-14, 1.387277798962209803E-32, 20.00000000000000000 ) ) ;
#129 = AXIS2_PLACEMENT_3D ( 'NONE', #135, #71, #180 ) ;
#130 = ORIENTED_EDGE ( 'NONE', *, *, #175, .T. ) ;
#131 = PRODUCT_RELATED_PRODUCT_CATEGORY ( 'detail', '', ( #158 ) ) ;
#132 = CARTESIAN_POINT ( 'NONE',  ( 0.0000000000000000000, 0.0000000000000000000, 0.0000000000000000000 ) ) ;
#133 = DIRECTION ( 'NONE',  ( 3.491481338843133355E-15, -1.224646799147353454E-16, 1.000000000000000000 ) ) ;
#134 = VERTEX_POINT ( 'NONE', #101 ) ;
#135 = CARTESIAN_POINT ( 'NONE',  ( 6.982962677686266711E-14, 1.387277798962209803E-32, 20.00000000000000000 ) ) ;
#136 = FACE_BOUND ( 'NONE', #81, .T. ) ;
#137 = DATE_AND_TIME ( #122, #52 ) ;
#138 = PERSON_AND_ORGANIZATION ( #13, #1 ) ;
#139 = DATE_AND_TIME ( #169, #126 ) ;
#140 = CC_DESIGN_PERSON_AND_ORGANIZATION_ASSIGNMENT ( #27, #125, ( #17 ) ) ;
#141 = PERSON_AND_ORGANIZATION ( #13, #1 ) ;
#142 = EDGE_LOOP ( 'NONE', ( #127 ) ) ;
#143 = CC_DESIGN_APPROVAL ( #108, ( #181 ) ) ;
#144 = ADVANCED_FACE ( 'NONE', ( #147 ), #88, .F. ) ;
#145 = PLANE ( 'NONE',  #79 ) ;
#146 = CARTESIAN_POINT ( 'NONE',  ( 1.801604370843056559E-13, -6.319177483600343742E-15, 51.59999999999999432 ) ) ;
#147 = FACE_OUTER_BOUND ( 'NONE', #174, .T. ) ;
#148 = CC_DESIGN_PERSON_AND_ORGANIZATION_ASSIGNMENT ( #202, #120, ( #149 ) ) ;
#149 = SECURITY_CLASSIFICATION ( '', '', #60 ) ;
#150 = CARTESIAN_POINT ( 'NONE',  ( 2.350971269544416446E-15, 1.849999999999990541, 0.6733449333924800273 ) ) ;
#151 = PLANE ( 'NONE',  #72 ) ;
#152 = FACE_OUTER_BOUND ( 'NONE', #4, .T. ) ;
#153 = COORDINATED_UNIVERSAL_TIME_OFFSET ( 1, 0, .AHEAD. ) ;
#154 = CIRCLE ( 'NONE', #16, 1.849999999999992983 ) ;
#155 = PERSON_AND_ORGANIZATION ( #13, #1 ) ;
#156 = EDGE_CURVE ( 'NONE', #166, #166, #178, .T. ) ;
#157 = ADVANCED_FACE ( 'NONE', ( #197, #136 ), #39, .T. ) ;
#158 = PRODUCT ( '32311', '32311', '', ( #124 ) ) ;
#159 = EDGE_LOOP ( 'NONE', ( #96 ) ) ;
#160 = EDGE_LOOP ( 'NONE', ( #83 ) ) ;
#161 = EDGE_LOOP ( 'NONE', ( #130 ) ) ;
#162 = AXIS2_PLACEMENT_3D ( 'NONE', #132, #54, #5 ) ;
#163 = DIRECTION ( 'NONE',  ( 0.0000000000000000000, 1.000000000000000000, 0.0000000000000000000 ) ) ;
#164 = CARTESIAN_POINT ( 'NONE',  ( 6.982962677686266711E-14, 1.849999999999990541, 20.00000000000000000 ) ) ;
#165 = DESIGN_CONTEXT ( 'detailed design', #193, 'design' ) ;
#166 = VERTEX_POINT ( 'NONE', #182 ) ;
#167 = CONICAL_SURFACE ( 'NONE', #30, 1.849999999999990541, 1.221730476396026388 ) ;
#168 = APPROVAL ( #103, 'UNSPECIFIED' ) ;
#169 = CALENDAR_DATE ( 2021, 15, 10 ) ;
#170 = CC_DESIGN_DATE_AND_TIME_ASSIGNMENT ( #46, #106, ( #149 ) ) ;
#171 = DIRECTION ( 'NONE',  ( 1.000000000000000000, 0.0000000000000000000, 0.0000000000000000000 ) ) ;
#172 = PERSON_AND_ORGANIZATION ( #13, #1 ) ;
#173 = CLOSED_SHELL ( 'NONE', ( #80, #97, #25 ) ) ;
#174 = EDGE_LOOP ( 'NONE', ( #195 ) ) ;
#175 = EDGE_CURVE ( 'NONE', #134, #134, #121, .T. ) ;
#176 = CYLINDRICAL_SURFACE ( 'NONE', #35, 1.849999999999994982 ) ;
#177 = CLOSED_SHELL ( 'NONE', ( #144, #42, #157, #107 ) ) ;
#178 = CIRCLE ( 'NONE', #98, 1.449999999999996847 ) ;
#179 = CARTESIAN_POINT ( 'NONE',  ( 1.815570296198429345E-13, 1.087325842429835407E-32, 52.00000000000000000 ) ) ;
#180 = DIRECTION ( 'NONE',  ( -4.275831445896959482E-31, -1.000000000000000000, -1.224646799147353454E-16 ) ) ;
#181 = PRODUCT_DEFINITION_FORMATION_WITH_SPECIFIED_SOURCE ( 'ANY', '', #158, .NOT_KNOWN. ) ;
#182 = CARTESIAN_POINT ( 'NONE',  ( 1.815570296198429345E-13, 1.449999999999990630, 52.00000000000000000 ) ) ;
#183 = EDGE_CURVE ( 'NONE', #89, #89, #90, .T. ) ;
#184 = DIRECTION ( 'NONE',  ( 0.0000000000000000000, 1.000000000000000000, 0.0000000000000000000 ) ) ;
#185 = CALENDAR_DATE ( 2021, 15, 10 ) ;
#186 = CC_DESIGN_PERSON_AND_ORGANIZATION_ASSIGNMENT ( #141, #200, ( #181 ) ) ;
#187 = APPROVAL_DATE_TIME ( #137, #108 ) ;
#188 = CALENDAR_DATE ( 2021, 15, 10 ) ;
#189 = AXIS2_PLACEMENT_3D ( 'NONE', #114, #56, #53 ) ;
#190 = ORIENTED_EDGE ( 'NONE', *, *, #156, .F. ) ;
#191 = MANIFOLD_SOLID_BREP ( 'Corps-Déplacer/Copier1[1]', #177 ) ;
#192 = LOCAL_TIME ( 15, 34, 33.00000000000000000, #153 ) ;
#193 = APPLICATION_CONTEXT ( 'configuration controlled 3d designs of mechanical parts and assemblies' ) ;
#194 = DIRECTION ( 'NONE',  ( -3.491481338843133355E-15, 1.224646799147353454E-16, -1.000000000000000000 ) ) ;
#195 = ORIENTED_EDGE ( 'NONE', *, *, #112, .T. ) ;
#196 = DIRECTION ( 'NONE',  ( -3.491481338843133355E-15, 1.224646799147353454E-16, -1.000000000000000000 ) ) ;
#197 = FACE_OUTER_BOUND ( 'NONE', #19, .T. ) ;
#198 = CARTESIAN_POINT ( 'NONE',  ( 2.350971269544416051E-15, -8.246097174011882239E-17, 0.6733449333924798053 ) ) ;
#199 = DIRECTION ( 'NONE',  ( 4.164172852729179455E-31, 1.000000000000000000, 1.172110456741091744E-16 ) ) ;
#200 = PERSON_AND_ORGANIZATION_ROLE ( 'design_supplier' ) ;
#201 = APPROVAL_DATE_TIME ( #139, #203 ) ;
#202 = PERSON_AND_ORGANIZATION ( #13, #1 ) ;
#203 = APPROVAL ( #45, 'UNSPECIFIED' ) ;
ENDSEC;
END-ISO-10303-21;
