ISO-10303-21;
HEADER;
FILE_DESCRIPTION (( 'STEP AP203' ),
    '1' );
FILE_NAME ('32277.step',
    '2021-09-03T07:21:57',
    ( '' ),
    ( '' ),
    'SwSTEP 2.0',
    'SolidWorks 2019',
    '' );
FILE_SCHEMA (( 'CONFIG_CONTROL_DESIGN' ));
ENDSEC;

DATA;
#1 = EDGE_CURVE ( 'NONE', #131, #141, #260, .T. ) ;
#2 = AXIS2_PLACEMENT_3D ( 'NONE', #202, #118, #270 ) ;
#3 = DIRECTION ( 'NONE',  ( -3.491481338843133355E-15, 1.224646799147353207E-16, -1.000000000000000000 ) ) ;
#4 = PERSON_AND_ORGANIZATION_ROLE ( 'design_supplier' ) ;
#5 = ORIENTED_EDGE ( 'NONE', *, *, #195, .T. ) ;
#6 = DIRECTION ( 'NONE',  ( -3.491481338843133355E-15, 1.224646799147353207E-16, -1.000000000000000000 ) ) ;
#7 = CARTESIAN_POINT ( 'NONE',  ( 1.326762908760390423E-13, 0.7249999999999920952, 38.00000000000000000 ) ) ;
#8 = CIRCLE ( 'NONE', #308, 0.9249999999999923839 ) ;
#9 = ORIENTED_EDGE ( 'NONE', *, *, #201, .T. ) ;
#10 = DIRECTION ( 'NONE',  ( 4.275831445896958607E-31, 1.000000000000000000, 1.224646799147353207E-16 ) ) ;
#11 = VERTEX_POINT ( 'NONE', #183 ) ;
#12 = EDGE_CURVE ( 'NONE', #74, #252, #15, .T. ) ;
#13 = AXIS2_PLACEMENT_3D ( 'NONE', #204, #313, #157 ) ;
#14 = APPLICATION_CONTEXT ( 'configuration controlled 3d designs of mechanical parts and assemblies' ) ;
#15 = CIRCLE ( 'NONE', #302, 0.9249999999999932720 ) ;
#16 = ORIENTED_EDGE ( 'NONE', *, *, #156, .T. ) ;
#17 = DATE_AND_TIME ( #281, #272 ) ;
#18 = EDGE_CURVE ( 'NONE', #131, #151, #135, .T. ) ;
#19 = ORIENTED_EDGE ( 'NONE', *, *, #168, .T. ) ;
#20 = APPROVAL_PERSON_ORGANIZATION ( #259, #179, #246 ) ;
#21 = VECTOR ( 'NONE', #110, 1000.000000000000114 ) ;
#22 = DIRECTION ( 'NONE',  ( 4.275831445896958607E-31, 1.000000000000000000, 1.224646799147352961E-16 ) ) ;
#23 = DIRECTION ( 'NONE',  ( 4.275831445896959482E-31, 1.000000000000000000, 1.224646799147353207E-16 ) ) ;
#24 = ORIENTED_EDGE ( 'NONE', *, *, #292, .T. ) ;
#25 = EDGE_CURVE ( 'NONE', #304, #141, #145, .T. ) ;
#26 = CALENDAR_DATE ( 2021, 3, 9 ) ;
#27 = CC_DESIGN_APPROVAL ( #95, ( #129 ) ) ;
#28 = CARTESIAN_POINT ( 'NONE',  ( 1.940551615686933423E-15, -6.806538812888667505E-17, 0.5557960726004954610 ) ) ;
#29 = ORIENTED_EDGE ( 'NONE', *, *, #134, .F. ) ;
#30 = PERSON_AND_ORGANIZATION ( #31, #234 ) ;
#31 = PERSON ( 'UNSPECIFIED', 'UNSPECIFIED', 'UNSPECIFIED', ('UNSPECIFIED'), ('UNSPECIFIED'), ('UNSPECIFIED') ) ;
#32 = FACE_OUTER_BOUND ( 'NONE', #180, .T. ) ;
#33 = DIRECTION ( 'NONE',  ( -3.491481338843133355E-15, 1.224646799147353207E-16, -1.000000000000000000 ) ) ;
#34 = AXIS2_PLACEMENT_3D ( 'NONE', #78, #123, #310 ) ;
#35 = EDGE_LOOP ( 'NONE', ( #227, #16, #324 ) ) ;
#36 = CARTESIAN_POINT ( 'NONE',  ( 1.319779946082704535E-13, -4.629164900776995227E-15, 37.79999999999999716 ) ) ;
#37 = CARTESIAN_POINT ( 'NONE',  ( 1.327650777689772385E-13, -0.7250000000000014211, 38.00000000000000000 ) ) ;
#38 = CARTESIAN_POINT ( 'NONE',  ( 1.940551615686933029E-15, -0.9249999999999924949, 0.5557960726004953500 ) ) ;
#39 = ORIENTED_EDGE ( 'NONE', *, *, #168, .F. ) ;
#40 = CC_DESIGN_PERSON_AND_ORGANIZATION_ASSIGNMENT ( #65, #90, ( #220 ) ) ;
#41 = CALENDAR_DATE ( 2021, 3, 9 ) ;
#42 = AXIS2_PLACEMENT_3D ( 'NONE', #170, #199, #331 ) ;
#43 = ORIENTED_EDGE ( 'NONE', *, *, #12, .T. ) ;
#44 =( GEOMETRIC_REPRESENTATION_CONTEXT ( 3 ) GLOBAL_UNCERTAINTY_ASSIGNED_CONTEXT ( ( #305 ) ) GLOBAL_UNIT_ASSIGNED_CONTEXT ( ( #224, #329, #286 ) ) REPRESENTATION_CONTEXT ( 'NONE', 'WORKASPACE' ) );
#45 = ORIENTED_EDGE ( 'NONE', *, *, #306, .F. ) ;
#46 = EDGE_CURVE ( 'NONE', #296, #233, #294, .T. ) ;
#47 = DIRECTION ( 'NONE',  ( 0.0000000000000000000, 1.000000000000000000, 0.0000000000000000000 ) ) ;
#48 = MANIFOLD_SOLID_BREP ( 'Corps-Déplacer/Copier1[1]', #277 ) ;
#49 = AXIS2_PLACEMENT_3D ( 'NONE', #228, #178, #282 ) ;
#50 = SECURITY_CLASSIFICATION ( '', '', #212 ) ;
#51 = CARTESIAN_POINT ( 'NONE',  ( 0.0000000000000000000, 0.0000000000000000000, 0.0000000000000000000 ) ) ;
#52 = CARTESIAN_POINT ( 'NONE',  ( 3.142333204958820020E-14, 0.9249999999999922728, 9.000000000000000000 ) ) ;
#53 = CARTESIAN_POINT ( 'NONE',  ( 2.053831444608062962E-15, 0.9249999999999922728, 0.5557960726004955720 ) ) ;
#54 = CIRCLE ( 'NONE', #34, 0.7249999999999967581 ) ;
#55 = PERSON_AND_ORGANIZATION ( #31, #234 ) ;
#56 = EDGE_LOOP ( 'NONE', ( #239, #241, #295, #194 ) ) ;
#57 = ORIENTED_EDGE ( 'NONE', *, *, #25, .T. ) ;
#58 = DIRECTION ( 'NONE',  ( 1.903218546456023900E-15, 0.8571673007021095581, 0.5150380749100589295 ) ) ;
#59 = CARTESIAN_POINT ( 'NONE',  ( 1.940551615686933423E-15, -6.806538812888667505E-17, 0.5557960726004954610 ) ) ;
#60 = ORIENTED_EDGE ( 'NONE', *, *, #249, .F. ) ;
#61 = DATE_AND_TIME ( #66, #136 ) ;
#62 = ORIENTED_EDGE ( 'NONE', *, *, #18, .T. ) ;
#63 = AXIS2_PLACEMENT_3D ( 'NONE', #293, #33, #137 ) ;
#64 = CARTESIAN_POINT ( 'NONE',  ( 1.326762908760390423E-13, -4.653657836759941941E-15, 38.00000000000000000 ) ) ;
#65 = PERSON_AND_ORGANIZATION ( #31, #234 ) ;
#66 = CALENDAR_DATE ( 2021, 3, 9 ) ;
#67 = COORDINATED_UNIVERSAL_TIME_OFFSET ( 1, 0, .AHEAD. ) ;
#68 = LINE ( 'NONE', #53, #119 ) ;
#69 = VECTOR ( 'NONE', #245, 1000.000000000000000 ) ;
#70 = FACE_OUTER_BOUND ( 'NONE', #297, .T. ) ;
#71 = APPROVAL_DATE_TIME ( #300, #179 ) ;
#72 = CC_DESIGN_PERSON_AND_ORGANIZATION_ASSIGNMENT ( #30, #111, ( #50 ) ) ;
#73 = FACE_OUTER_BOUND ( 'NONE', #35, .T. ) ;
#74 = VERTEX_POINT ( 'NONE', #109 ) ;
#75 = CARTESIAN_POINT ( 'NONE',  ( 0.0000000000000000000, 0.0000000000000000000, 0.0000000000000000000 ) ) ;
#76 = COORDINATED_UNIVERSAL_TIME_OFFSET ( 1, 0, .AHEAD. ) ;
#77 = ORIENTED_EDGE ( 'NONE', *, *, #301, .T. ) ;
#78 = CARTESIAN_POINT ( 'NONE',  ( 1.326762908760390423E-13, -4.653657836759941941E-15, 38.00000000000000000 ) ) ;
#79 = CYLINDRICAL_SURFACE ( 'NONE', #248, 0.9249999999999950484 ) ;
#80 = APPROVAL_DATE_TIME ( #337, #95 ) ;
#81 = DIRECTION ( 'NONE',  ( 4.275831445896958607E-31, 1.000000000000000000, 1.224646799147352961E-16 ) ) ;
#82 = ADVANCED_FACE ( 'NONE', ( #32 ), #85, .F. ) ;
#83 = DATE_AND_TIME ( #26, #271 ) ;
#84 = CARTESIAN_POINT ( 'NONE',  ( 1.132798289211289224E-16, -0.9249999999999929390, -1.132798289211296866E-16 ) ) ;
#85 = PLANE ( 'NONE',  #113 ) ;
#86 = DIRECTION ( 'NONE',  ( 1.000000000000000000, 0.0000000000000000000, 0.0000000000000000000 ) ) ;
#87 = ADVANCED_FACE ( 'NONE', ( #219 ), #94, .T. ) ;
#88 = DIRECTION ( 'NONE',  ( -3.491481338843133355E-15, 1.224646799147353207E-16, -1.000000000000000000 ) ) ;
#89 = FACE_OUTER_BOUND ( 'NONE', #163, .T. ) ;
#90 = PERSON_AND_ORGANIZATION_ROLE ( 'design_owner' ) ;
#91 = CC_DESIGN_APPROVAL ( #179, ( #244 ) ) ;
#92 = COORDINATED_UNIVERSAL_TIME_OFFSET ( 1, 0, .AHEAD. ) ;
#93 = PRODUCT_RELATED_PRODUCT_CATEGORY ( 'detail', '', ( #220 ) ) ;
#94 = CONICAL_SURFACE ( 'NONE', #303, 0.7249999999999967581, 0.7853981633974516097 ) ;
#95 = APPROVAL ( #231, 'UNSPECIFIED' ) ;
#96 = DIRECTION ( 'NONE',  ( 0.0000000000000000000, 1.000000000000000000, 0.0000000000000000000 ) ) ;
#97 = ORIENTED_EDGE ( 'NONE', *, *, #46, .F. ) ;
#98 = AXIS2_PLACEMENT_3D ( 'NONE', #128, #232, #96 ) ;
#99 = CYLINDRICAL_SURFACE ( 'NONE', #225, 0.9249999999999929390 ) ;
#100 = CONICAL_SURFACE ( 'NONE', #63, 0.7249999999999967581, 0.7853981633974516097 ) ;
#101 = CARTESIAN_POINT ( 'NONE',  ( 1.324281761030844277E-13, -0.7250000000000014211, 38.00000000000000000 ) ) ;
#102 = ADVANCED_FACE ( 'NONE', ( #89 ), #317, .F. ) ;
#103 = ORIENTED_EDGE ( 'NONE', *, *, #1, .T. ) ;
#104 = DIRECTION ( 'NONE',  ( 3.491481338843133355E-15, -1.224646799147353207E-16, 1.000000000000000000 ) ) ;
#105 = LOCAL_TIME ( 9, 21, 57.00000000000000000, #67 ) ;
#106 = CARTESIAN_POINT ( 'NONE',  ( 1.132798289211291689E-16, -0.9249999999999950484, -1.132798289211299578E-16 ) ) ;
#107 = DIRECTION ( 'NONE',  ( -3.491481338843133355E-15, 1.224646799147353207E-16, -1.000000000000000000 ) ) ;
#108 = ADVANCED_FACE ( 'NONE', ( #125 ), #99, .T. ) ;
#109 = CARTESIAN_POINT ( 'NONE',  ( 3.142333204958820020E-14, 0.9249999999999922728, 9.000000000000000000 ) ) ;
#110 = DIRECTION ( 'NONE',  ( -2.468850131082256666E-15, 0.7071067811865500152, -0.7071067811865451302 ) ) ;
#111 = PERSON_AND_ORGANIZATION_ROLE ( 'classification_officer' ) ;
#112 = EDGE_LOOP ( 'NONE', ( #115, #62, #5, #45 ) ) ;
#113 = AXIS2_PLACEMENT_3D ( 'NONE', #186, #263, #10 ) ;
#114 = APPROVAL_PERSON_ORGANIZATION ( #126, #95, #254 ) ;
#115 = ORIENTED_EDGE ( 'NONE', *, *, #1, .F. ) ;
#116 = EDGE_CURVE ( 'NONE', #151, #131, #196, .T. ) ;
#117 = DIRECTION ( 'NONE',  ( -3.491481338843133355E-15, 1.224646799147353207E-16, -1.000000000000000000 ) ) ;
#118 = DIRECTION ( 'NONE',  ( 3.491481338843133355E-15, -1.224646799147353207E-16, 1.000000000000000000 ) ) ;
#119 = VECTOR ( 'NONE', #58, 1000.000000000000114 ) ;
#120 = CC_DESIGN_PERSON_AND_ORGANIZATION_ASSIGNMENT ( #169, #274, ( #244 ) ) ;
#121 = CYLINDRICAL_SURFACE ( 'NONE', #229, 0.9249999999999950484 ) ;
#122 = ORIENTED_EDGE ( 'NONE', *, *, #207, .F. ) ;
#123 = DIRECTION ( 'NONE',  ( -3.491481338843133355E-15, 1.224646799147353207E-16, -1.000000000000000000 ) ) ;
#124 = VECTOR ( 'NONE', #139, 1000.000000000000114 ) ;
#125 = FACE_OUTER_BOUND ( 'NONE', #247, .T. ) ;
#126 = PERSON_AND_ORGANIZATION ( #31, #234 ) ;
#127 = CARTESIAN_POINT ( 'NONE',  ( 0.0000000000000000000, 0.0000000000000000000, 0.0000000000000000000 ) ) ;
#128 = CARTESIAN_POINT ( 'NONE',  ( 1.319779946082704535E-13, -4.629164900776995227E-15, 37.79999999999999716 ) ) ;
#129 = PRODUCT_DEFINITION_FORMATION_WITH_SPECIFIED_SOURCE ( 'ANY', '', #220, .NOT_KNOWN. ) ;
#130 = CC_DESIGN_DATE_AND_TIME_ASSIGNMENT ( #83, #289, ( #244 ) ) ;
#131 = VERTEX_POINT ( 'NONE', #210 ) ;
#132 = LINE ( 'NONE', #38, #330 ) ;
#133 = CARTESIAN_POINT ( 'NONE',  ( 3.142333204958820020E-14, -1.102182119232617714E-15, 9.000000000000000000 ) ) ;
#134 = EDGE_CURVE ( 'NONE', #147, #74, #174, .T. ) ;
#135 = CIRCLE ( 'NONE', #155, 0.9249999999999932720 ) ;
#136 = LOCAL_TIME ( 9, 21, 57.00000000000000000, #92 ) ;
#137 = DIRECTION ( 'NONE',  ( 0.0000000000000000000, 1.000000000000000000, 0.0000000000000000000 ) ) ;
#138 = APPROVAL_STATUS ( 'not_yet_approved' ) ;
#139 = DIRECTION ( 'NONE',  ( -2.382254525458707609E-15, -0.7071067811865497932, -0.7071067811865453523 ) ) ;
#140 = LINE ( 'NONE', #214, #222 ) ;
#141 = VERTEX_POINT ( 'NONE', #311 ) ;
#142 = DIRECTION ( 'NONE',  ( 4.275831445896959482E-31, 1.000000000000000000, 1.224646799147353207E-16 ) ) ;
#143 = ADVANCED_FACE ( 'NONE', ( #279 ), #79, .T. ) ;
#144 = DIRECTION ( 'NONE',  ( 0.0000000000000000000, 1.000000000000000000, 0.0000000000000000000 ) ) ;
#145 = CIRCLE ( 'NONE', #265, 0.9249999999999923839 ) ;
#146 = CARTESIAN_POINT ( 'NONE',  ( 0.0000000000000000000, 0.0000000000000000000, 0.0000000000000000000 ) ) ;
#147 = VERTEX_POINT ( 'NONE', #177 ) ;
#148 = ORIENTED_EDGE ( 'NONE', *, *, #207, .T. ) ;
#149 = CARTESIAN_POINT ( 'NONE',  ( 3.955144087454665998E-31, 0.9249999999999950484, 1.132798289211295634E-16 ) ) ;
#150 = AXIS2_PLACEMENT_3D ( 'NONE', #36, #242, #47 ) ;
#151 = VERTEX_POINT ( 'NONE', #52 ) ;
#152 = EDGE_LOOP ( 'NONE', ( #266, #77, #57 ) ) ;
#153 = ADVANCED_FACE ( 'NONE', ( #307 ), #283, .T. ) ;
#154 = CARTESIAN_POINT ( 'NONE',  ( 2.053831444608062962E-15, 0.9249999999999922728, 0.5557960726004955720 ) ) ;
#155 = AXIS2_PLACEMENT_3D ( 'NONE', #133, #218, #216 ) ;
#156 = EDGE_CURVE ( 'NONE', #11, #141, #132, .T. ) ;
#157 = DIRECTION ( 'NONE',  ( 0.0000000000000000000, 1.000000000000000000, 0.0000000000000000000 ) ) ;
#158 = DIRECTION ( 'NONE',  ( 4.164172852729192592E-31, 1.000000000000000000, 1.172110456741095442E-16 ) ) ;
#159 = DIRECTION ( 'NONE',  ( -3.491481338843133355E-15, 1.224646799147353207E-16, -1.000000000000000000 ) ) ;
#160 = CARTESIAN_POINT ( 'NONE',  ( 1.326762908760390423E-13, 0.7249999999999920952, 38.00000000000000000 ) ) ;
#161 = DIRECTION ( 'NONE',  ( -3.491481338843133355E-15, 1.224646799147353207E-16, -1.000000000000000000 ) ) ;
#162 = DIRECTION ( 'NONE',  ( 0.0000000000000000000, 1.000000000000000000, 0.0000000000000000000 ) ) ;
#163 = EDGE_LOOP ( 'NONE', ( #43, #19 ) ) ;
#164 = MANIFOLD_SOLID_BREP ( 'Corps-Déplacer/Copier1[2]', #269 ) ;
#165 = CIRCLE ( 'NONE', #13, 0.7249999999999967581 ) ;
#166 = AXIS2_PLACEMENT_3D ( 'NONE', #261, #320, #86 ) ;
#167 = LOCAL_TIME ( 9, 21, 57.00000000000000000, #175 ) ;
#168 = EDGE_CURVE ( 'NONE', #252, #74, #181, .T. ) ;
#169 = PERSON_AND_ORGANIZATION ( #31, #234 ) ;
#170 = CARTESIAN_POINT ( 'NONE',  ( 1.940551615686933423E-15, -6.806538812888667505E-17, 0.5557960726004954610 ) ) ;
#171 = VECTOR ( 'NONE', #319, 1000.000000000000000 ) ;
#172 = COORDINATED_UNIVERSAL_TIME_OFFSET ( 1, 0, .AHEAD. ) ;
#173 = DESIGN_CONTEXT ( 'detailed design', #14, 'design' ) ;
#174 = LINE ( 'NONE', #149, #278 ) ;
#175 = COORDINATED_UNIVERSAL_TIME_OFFSET ( 1, 0, .AHEAD. ) ;
#176 = CIRCLE ( 'NONE', #150, 0.9249999999999969358 ) ;
#177 = CARTESIAN_POINT ( 'NONE',  ( 1.319779946082704535E-13, 0.9249999999999922728, 37.79999999999999716 ) ) ;
#178 = DIRECTION ( 'NONE',  ( 3.491481338843133355E-15, -1.224646799147353207E-16, 1.000000000000000000 ) ) ;
#179 = APPROVAL ( #138, 'UNSPECIFIED' ) ;
#180 = EDGE_LOOP ( 'NONE', ( #60, #198 ) ) ;
#181 = CIRCLE ( 'NONE', #255, 0.9249999999999932720 ) ;
#182 = PERSON_AND_ORGANIZATION ( #31, #234 ) ;
#183 = CARTESIAN_POINT ( 'NONE',  ( 0.0000000000000000000, 0.0000000000000000000, 0.0000000000000000000 ) ) ;
#184 = CARTESIAN_POINT ( 'NONE',  ( 8.181394315785025678E-14, -0.9250000000000015987, 37.79999999999999716 ) ) ;
#185 = CARTESIAN_POINT ( 'NONE',  ( 8.181394315785040824E-14, -0.9249999999999943823, 9.000000000000000000 ) ) ;
#186 = CARTESIAN_POINT ( 'NONE',  ( 1.326762908760390423E-13, 5.436629212149140089E-33, 38.00000000000000000 ) ) ;
#187 = ORIENTED_EDGE ( 'NONE', *, *, #25, .F. ) ;
#188 = CARTESIAN_POINT ( 'NONE',  ( 3.142333204958820020E-14, 6.936388994811024382E-33, 9.000000000000000000 ) ) ;
#189 = ORIENTED_EDGE ( 'NONE', *, *, #134, .T. ) ;
#190 = MECHANICAL_CONTEXT ( 'NONE', #285, 'mechanical' ) ;
#191 = CC_DESIGN_PERSON_AND_ORGANIZATION_ASSIGNMENT ( #182, #4, ( #129 ) ) ;
#192 = EDGE_LOOP ( 'NONE', ( #211, #314 ) ) ;
#193 = CC_DESIGN_DATE_AND_TIME_ASSIGNMENT ( #61, #215, ( #50 ) ) ;
#194 = ORIENTED_EDGE ( 'NONE', *, *, #201, .F. ) ;
#195 = EDGE_CURVE ( 'NONE', #151, #304, #140, .T. ) ;
#196 = CIRCLE ( 'NONE', #288, 0.9249999999999932720 ) ;
#197 = CC_DESIGN_SECURITY_CLASSIFICATION ( #50, ( #129 ) ) ;
#198 = ORIENTED_EDGE ( 'NONE', *, *, #264, .F. ) ;
#199 = DIRECTION ( 'NONE',  ( 3.491481338843133355E-15, -1.224646799147353207E-16, 1.000000000000000000 ) ) ;
#200 = EDGE_LOOP ( 'NONE', ( #122, #213, #189, #39 ) ) ;
#201 = EDGE_CURVE ( 'NONE', #253, #147, #325, .T. ) ;
#202 = CARTESIAN_POINT ( 'NONE',  ( 1.940551615686933423E-15, -6.806538812888667505E-17, 0.5557960726004954610 ) ) ;
#203 = DIRECTION ( 'NONE',  ( -3.491481338843133355E-15, 1.224646799147353207E-16, -1.000000000000000000 ) ) ;
#204 = CARTESIAN_POINT ( 'NONE',  ( 1.326762908760390423E-13, -4.653657836759941941E-15, 38.00000000000000000 ) ) ;
#205 = ORIENTED_EDGE ( 'NONE', *, *, #12, .F. ) ;
#206 = CARTESIAN_POINT ( 'NONE',  ( 3.142333204958820020E-14, -1.102182119232617714E-15, 9.000000000000000000 ) ) ;
#207 = EDGE_CURVE ( 'NONE', #233, #252, #217, .T. ) ;
#208 = DIRECTION ( 'NONE',  ( -4.275831445896958607E-31, -1.000000000000000000, -1.224646799147353207E-16 ) ) ;
#209 = AXIS2_PLACEMENT_3D ( 'NONE', #75, #276, #22 ) ;
#210 = CARTESIAN_POINT ( 'NONE',  ( 1.679522166155868235E-14, -0.9249999999999943823, 9.000000000000000000 ) ) ;
#211 = ORIENTED_EDGE ( 'NONE', *, *, #116, .F. ) ;
#212 = SECURITY_CLASSIFICATION_LEVEL ( 'unclassified' ) ;
#213 = ORIENTED_EDGE ( 'NONE', *, *, #257, .T. ) ;
#214 = CARTESIAN_POINT ( 'NONE',  ( 3.955144087454656364E-31, 0.9249999999999929390, 1.132798289211292922E-16 ) ) ;
#215 = DATE_TIME_ROLE ( 'classification_date' ) ;
#216 = DIRECTION ( 'NONE',  ( 0.0000000000000000000, 1.000000000000000000, 0.0000000000000000000 ) ) ;
#217 = LINE ( 'NONE', #106, #69 ) ;
#218 = DIRECTION ( 'NONE',  ( -3.491481338843133355E-15, 1.224646799147353207E-16, -1.000000000000000000 ) ) ;
#219 = FACE_OUTER_BOUND ( 'NONE', #287, .T. ) ;
#220 = PRODUCT ( '32277', '32277', '', ( #190 ) ) ;
#221 = FACE_OUTER_BOUND ( 'NONE', #56, .T. ) ;
#222 = VECTOR ( 'NONE', #88, 1000.000000000000000 ) ;
#223 = APPROVAL ( #258, 'UNSPECIFIED' ) ;
#224 =( LENGTH_UNIT ( ) NAMED_UNIT ( * ) SI_UNIT ( .MILLI., .METRE. ) );
#225 = AXIS2_PLACEMENT_3D ( 'NONE', #51, #309, #81 ) ;
#226 = DIRECTION ( 'NONE',  ( 4.164172852729192592E-31, 1.000000000000000000, 1.172110456741095442E-16 ) ) ;
#227 = ORIENTED_EDGE ( 'NONE', *, *, #301, .F. ) ;
#228 = CARTESIAN_POINT ( 'NONE',  ( 3.142333204958820020E-14, 6.936388994811024382E-33, 9.000000000000000000 ) ) ;
#229 = AXIS2_PLACEMENT_3D ( 'NONE', #146, #117, #142 ) ;
#230 = ADVANCED_BREP_SHAPE_REPRESENTATION ( '32277', ( #48, #164, #166 ), #44 ) ;
#231 = APPROVAL_STATUS ( 'not_yet_approved' ) ;
#232 = DIRECTION ( 'NONE',  ( -3.491481338843133355E-15, 1.224646799147353207E-16, -1.000000000000000000 ) ) ;
#233 = VERTEX_POINT ( 'NONE', #184 ) ;
#234 = ORGANIZATION ( 'UNSPECIFIED', 'UNSPECIFIED', '' ) ;
#235 = DIRECTION ( 'NONE',  ( 0.0000000000000000000, 1.000000000000000000, 0.0000000000000000000 ) ) ;
#236 = DIRECTION ( 'NONE',  ( -3.491481338843133355E-15, 1.224646799147353207E-16, -1.000000000000000000 ) ) ;
#237 = PERSON_AND_ORGANIZATION ( #31, #234 ) ;
#238 = ADVANCED_FACE ( 'NONE', ( #221 ), #100, .T. ) ;
#239 = ORIENTED_EDGE ( 'NONE', *, *, #249, .T. ) ;
#240 = CIRCLE ( 'NONE', #98, 0.9249999999999969358 ) ;
#241 = ORIENTED_EDGE ( 'NONE', *, *, #46, .T. ) ;
#242 = DIRECTION ( 'NONE',  ( -3.491481338843133355E-15, 1.224646799147353207E-16, -1.000000000000000000 ) ) ;
#243 = DIRECTION ( 'NONE',  ( 0.0000000000000000000, 1.000000000000000000, 0.0000000000000000000 ) ) ;
#244 = PRODUCT_DEFINITION ( 'UNKNOWN', '', #129, #173 ) ;
#245 = DIRECTION ( 'NONE',  ( -3.491481338843133355E-15, 1.224646799147353207E-16, -1.000000000000000000 ) ) ;
#246 = APPROVAL_ROLE ( '' ) ;
#247 = EDGE_LOOP ( 'NONE', ( #262, #103, #187, #315 ) ) ;
#248 = AXIS2_PLACEMENT_3D ( 'NONE', #127, #6, #23 ) ;
#249 = EDGE_CURVE ( 'NONE', #253, #296, #165, .T. ) ;
#250 = CONICAL_SURFACE ( 'NONE', #42, 0.9249999999999923839, 1.029744258676649205 ) ;
#251 = PLANE ( 'NONE',  #49 ) ;
#252 = VERTEX_POINT ( 'NONE', #185 ) ;
#253 = VERTEX_POINT ( 'NONE', #160 ) ;
#254 = APPROVAL_ROLE ( '' ) ;
#255 = AXIS2_PLACEMENT_3D ( 'NONE', #327, #159, #144 ) ;
#256 = APPROVAL_PERSON_ORGANIZATION ( #55, #223, #316 ) ;
#257 = EDGE_CURVE ( 'NONE', #233, #147, #176, .T. ) ;
#258 = APPROVAL_STATUS ( 'not_yet_approved' ) ;
#259 = PERSON_AND_ORGANIZATION ( #31, #234 ) ;
#260 = LINE ( 'NONE', #84, #171 ) ;
#261 = CARTESIAN_POINT ( 'NONE',  ( 0.0000000000000000000, 0.0000000000000000000, 0.0000000000000000000 ) ) ;
#262 = ORIENTED_EDGE ( 'NONE', *, *, #116, .T. ) ;
#263 = DIRECTION ( 'NONE',  ( -3.491481338843133355E-15, 1.224646799147353207E-16, -1.000000000000000000 ) ) ;
#264 = EDGE_CURVE ( 'NONE', #296, #253, #54, .T. ) ;
#265 = AXIS2_PLACEMENT_3D ( 'NONE', #59, #161, #158 ) ;
#266 = ORIENTED_EDGE ( 'NONE', *, *, #156, .F. ) ;
#267 = APPLICATION_PROTOCOL_DEFINITION ( 'international standard', 'config_control_design', 1994, #14 ) ;
#268 = ORIENTED_EDGE ( 'NONE', *, *, #264, .T. ) ;
#269 = CLOSED_SHELL ( 'NONE', ( #108, #318, #328, #153, #284 ) ) ;
#270 = DIRECTION ( 'NONE',  ( -4.164172852729192592E-31, -1.000000000000000000, -1.172110456741095442E-16 ) ) ;
#271 = LOCAL_TIME ( 9, 21, 57.00000000000000000, #76 ) ;
#272 = LOCAL_TIME ( 9, 21, 57.00000000000000000, #172 ) ;
#273 = ORIENTED_EDGE ( 'NONE', *, *, #257, .F. ) ;
#274 = PERSON_AND_ORGANIZATION_ROLE ( 'creator' ) ;
#275 = SHAPE_DEFINITION_REPRESENTATION ( #299, #230 ) ;
#276 = DIRECTION ( 'NONE',  ( -3.491481338843133355E-15, 1.224646799147353207E-16, -1.000000000000000000 ) ) ;
#277 = CLOSED_SHELL ( 'NONE', ( #238, #332, #102, #143, #87, #82 ) ) ;
#278 = VECTOR ( 'NONE', #3, 1000.000000000000000 ) ;
#279 = FACE_OUTER_BOUND ( 'NONE', #200, .T. ) ;
#280 = CALENDAR_DATE ( 2021, 3, 9 ) ;
#281 = CALENDAR_DATE ( 2021, 3, 9 ) ;
#282 = DIRECTION ( 'NONE',  ( -4.275831445896958607E-31, -1.000000000000000000, -1.224646799147353207E-16 ) ) ;
#283 = CYLINDRICAL_SURFACE ( 'NONE', #209, 0.9249999999999929390 ) ;
#284 = ADVANCED_FACE ( 'NONE', ( #336 ), #251, .T. ) ;
#285 = APPLICATION_CONTEXT ( 'configuration controlled 3d designs of mechanical parts and assemblies' ) ;
#286 =( NAMED_UNIT ( * ) SI_UNIT ( $, .STERADIAN. ) SOLID_ANGLE_UNIT ( ) );
#287 = EDGE_LOOP ( 'NONE', ( #97, #268, #9, #273 ) ) ;
#288 = AXIS2_PLACEMENT_3D ( 'NONE', #206, #203, #235 ) ;
#289 = DATE_TIME_ROLE ( 'creation_date' ) ;
#290 = CARTESIAN_POINT ( 'NONE',  ( 3.142333204958820020E-14, -1.102182119232617714E-15, 9.000000000000000000 ) ) ;
#291 = APPLICATION_PROTOCOL_DEFINITION ( 'international standard', 'config_control_design', 1994, #285 ) ;
#292 = EDGE_CURVE ( 'NONE', #147, #233, #240, .T. ) ;
#293 = CARTESIAN_POINT ( 'NONE',  ( 1.326762908760390423E-13, -4.653657836759941941E-15, 38.00000000000000000 ) ) ;
#294 = LINE ( 'NONE', #37, #124 ) ;
#295 = ORIENTED_EDGE ( 'NONE', *, *, #292, .F. ) ;
#296 = VERTEX_POINT ( 'NONE', #101 ) ;
#297 = EDGE_LOOP ( 'NONE', ( #24, #148, #205, #29 ) ) ;
#298 = CONICAL_SURFACE ( 'NONE', #2, 0.9249999999999923839, 1.029744258676649205 ) ;
#299 = PRODUCT_DEFINITION_SHAPE ( 'NONE', 'NONE',  #244 ) ;
#300 = DATE_AND_TIME ( #41, #105 ) ;
#301 = EDGE_CURVE ( 'NONE', #11, #304, #68, .T. ) ;
#302 = AXIS2_PLACEMENT_3D ( 'NONE', #290, #107, #243 ) ;
#303 = AXIS2_PLACEMENT_3D ( 'NONE', #64, #323, #162 ) ;
#304 = VERTEX_POINT ( 'NONE', #154 ) ;
#305 = UNCERTAINTY_MEASURE_WITH_UNIT (LENGTH_MEASURE( 1.000000000000000082E-05 ), #224, 'distance_accuracy_value', 'NONE');
#306 = EDGE_CURVE ( 'NONE', #141, #304, #8, .T. ) ;
#307 = FACE_OUTER_BOUND ( 'NONE', #112, .T. ) ;
#308 = AXIS2_PLACEMENT_3D ( 'NONE', #28, #236, #226 ) ;
#309 = DIRECTION ( 'NONE',  ( -3.491481338843133355E-15, 1.224646799147353207E-16, -1.000000000000000000 ) ) ;
#310 = DIRECTION ( 'NONE',  ( 0.0000000000000000000, 1.000000000000000000, 0.0000000000000000000 ) ) ;
#311 = CARTESIAN_POINT ( 'NONE',  ( 1.940551615686933029E-15, -0.9249999999999924949, 0.5557960726004953500 ) ) ;
#312 = CC_DESIGN_PERSON_AND_ORGANIZATION_ASSIGNMENT ( #237, #322, ( #129 ) ) ;
#313 = DIRECTION ( 'NONE',  ( -3.491481338843133355E-15, 1.224646799147353207E-16, -1.000000000000000000 ) ) ;
#314 = ORIENTED_EDGE ( 'NONE', *, *, #18, .F. ) ;
#315 = ORIENTED_EDGE ( 'NONE', *, *, #195, .F. ) ;
#316 = APPROVAL_ROLE ( '' ) ;
#317 = PLANE ( 'NONE',  #326 ) ;
#318 = ADVANCED_FACE ( 'NONE', ( #333 ), #250, .T. ) ;
#319 = DIRECTION ( 'NONE',  ( -3.491481338843133355E-15, 1.224646799147353207E-16, -1.000000000000000000 ) ) ;
#320 = DIRECTION ( 'NONE',  ( 0.0000000000000000000, 0.0000000000000000000, 1.000000000000000000 ) ) ;
#321 = DIRECTION ( 'NONE',  ( 1.798245827342161500E-15, -0.8571673007021096691, 0.5150380749100585964 ) ) ;
#322 = PERSON_AND_ORGANIZATION_ROLE ( 'creator' ) ;
#323 = DIRECTION ( 'NONE',  ( -3.491481338843133355E-15, 1.224646799147353207E-16, -1.000000000000000000 ) ) ;
#324 = ORIENTED_EDGE ( 'NONE', *, *, #306, .T. ) ;
#325 = LINE ( 'NONE', #7, #21 ) ;
#326 = AXIS2_PLACEMENT_3D ( 'NONE', #188, #104, #208 ) ;
#327 = CARTESIAN_POINT ( 'NONE',  ( 3.142333204958820020E-14, -1.102182119232617714E-15, 9.000000000000000000 ) ) ;
#328 = ADVANCED_FACE ( 'NONE', ( #73 ), #298, .T. ) ;
#329 =( NAMED_UNIT ( * ) PLANE_ANGLE_UNIT ( ) SI_UNIT ( $, .RADIAN. ) );
#330 = VECTOR ( 'NONE', #321, 1000.000000000000000 ) ;
#331 = DIRECTION ( 'NONE',  ( -4.164172852729192592E-31, -1.000000000000000000, -1.172110456741095442E-16 ) ) ;
#332 = ADVANCED_FACE ( 'NONE', ( #70 ), #121, .T. ) ;
#333 = FACE_OUTER_BOUND ( 'NONE', #152, .T. ) ;
#334 = APPROVAL_DATE_TIME ( #17, #223 ) ;
#335 = CC_DESIGN_APPROVAL ( #223, ( #50 ) ) ;
#336 = FACE_OUTER_BOUND ( 'NONE', #192, .T. ) ;
#337 = DATE_AND_TIME ( #280, #167 ) ;
ENDSEC;
END-ISO-10303-21;
