ISO-10303-21;
HEADER;
FILE_DESCRIPTION (( 'STEP AP203' ),
    '1' );
FILE_NAME ('32237.step',
    '2021-10-15T13:34:33',
    ( '' ),
    ( '' ),
    'SwSTEP 2.0',
    'SolidWorks 2019',
    '' );
FILE_SCHEMA (( 'CONFIG_CONTROL_DESIGN' ));
ENDSEC;

DATA;
#1 = APPROVAL_PERSON_ORGANIZATION ( #39, #13, #81 ) ;
#2 = CARTESIAN_POINT ( 'NONE',  ( 1.291848095371959215E-13, -4.531193156845206793E-15, 37.00000000000000000 ) ) ;
#3 = CARTESIAN_POINT ( 'NONE',  ( 0.0000000000000000000, 0.0000000000000000000, 0.0000000000000000000 ) ) ;
#4 = CARTESIAN_POINT ( 'NONE',  ( 5.210260651422779534E-15, 4.099999999999993427, 1.492277960491447564 ) ) ;
#5 =( LENGTH_UNIT ( ) NAMED_UNIT ( * ) SI_UNIT ( .MILLI., .METRE. ) );
#6 = DIRECTION ( 'NONE',  ( -3.491481338843133355E-15, 1.224646799147353207E-16, -1.000000000000000000 ) ) ;
#7 = PERSON_AND_ORGANIZATION_ROLE ( 'design_owner' ) ;
#8 = PERSON_AND_ORGANIZATION ( #139, #197 ) ;
#9 = AXIS2_PLACEMENT_3D ( 'NONE', #142, #6, #173 ) ;
#10 = PERSON_AND_ORGANIZATION ( #139, #197 ) ;
#11 = APPROVAL_DATE_TIME ( #91, #44 ) ;
#12 = CIRCLE ( 'NONE', #182, 3.300000000000002931 ) ;
#13 = APPROVAL ( #111, 'UNSPECIFIED' ) ;
#14 = CIRCLE ( 'NONE', #113, 4.100000000000004086 ) ;
#15 = PRODUCT ( '32237', '32237', '', ( #151 ) ) ;
#16 = DIRECTION ( 'NONE',  ( 3.757912086609246873E-31, 1.000000000000000000, 1.057758217059030457E-16 ) ) ;
#17 = FACE_OUTER_BOUND ( 'NONE', #137, .T. ) ;
#18 = ADVANCED_FACE ( 'NONE', ( #69, #198 ), #72, .T. ) ;
#19 = CARTESIAN_POINT ( 'NONE',  ( 1.291848095371959215E-13, 4.099999999999993427, 37.00000000000000000 ) ) ;
#20 = CARTESIAN_POINT ( 'NONE',  ( 2.730338406975330915E-13, -9.576737969332302470E-15, 78.20000000000000284 ) ) ;
#21 = FACE_BOUND ( 'NONE', #33, .T. ) ;
#22 = AXIS2_PLACEMENT_3D ( 'NONE', #115, #136, #86 ) ;
#23 = PERSON_AND_ORGANIZATION ( #139, #197 ) ;
#24 = LOCAL_TIME ( 15, 34, 33.00000000000000000, #183 ) ;
#25 = APPLICATION_PROTOCOL_DEFINITION ( 'international standard', 'config_control_design', 1994, #41 ) ;
#26 = DATE_AND_TIME ( #150, #148 ) ;
#27 = CC_DESIGN_PERSON_AND_ORGANIZATION_ASSIGNMENT ( #66, #68, ( #122 ) ) ;
#28 = APPROVAL_PERSON_ORGANIZATION ( #8, #95, #125 ) ;
#29 = ORIENTED_EDGE ( 'NONE', *, *, #108, .T. ) ;
#30 = CLOSED_SHELL ( 'NONE', ( #202, #57, #186, #143 ) ) ;
#31 = CIRCLE ( 'NONE', #37, 4.099999999999993427 ) ;
#32 = CYLINDRICAL_SURFACE ( 'NONE', #96, 4.100000000000001421 ) ;
#33 = EDGE_LOOP ( 'NONE', ( #114 ) ) ;
#34 = CARTESIAN_POINT ( 'NONE',  ( 1.291848095371959215E-13, 3.074507554456800433E-32, 37.00000000000000000 ) ) ;
#35 = DIRECTION ( 'NONE',  ( 0.0000000000000000000, 1.000000000000000000, 0.0000000000000000000 ) ) ;
#36 = DIRECTION ( 'NONE',  ( 3.491481338843133355E-15, -1.224646799147353207E-16, 1.000000000000000000 ) ) ;
#37 = AXIS2_PLACEMENT_3D ( 'NONE', #87, #64, #16 ) ;
#38 = ADVANCED_BREP_SHAPE_REPRESENTATION ( '32237', ( #180, #179, #78 ), #176 ) ;
#39 = PERSON_AND_ORGANIZATION ( #139, #197 ) ;
#40 = CALENDAR_DATE ( 2021, 15, 10 ) ;
#41 = APPLICATION_CONTEXT ( 'configuration controlled 3d designs of mechanical parts and assemblies' ) ;
#42 = COORDINATED_UNIVERSAL_TIME_OFFSET ( 1, 0, .AHEAD. ) ;
#43 = COORDINATED_UNIVERSAL_TIME_OFFSET ( 1, 0, .AHEAD. ) ;
#44 = APPROVAL ( #65, 'UNSPECIFIED' ) ;
#45 = PRODUCT_DEFINITION_SHAPE ( 'NONE', 'NONE',  #122 ) ;
#46 = ORIENTED_EDGE ( 'NONE', *, *, #108, .F. ) ;
#47 = AXIS2_PLACEMENT_3D ( 'NONE', #34, #36, #73 ) ;
#48 = ORIENTED_EDGE ( 'NONE', *, *, #167, .T. ) ;
#49 = CC_DESIGN_DATE_AND_TIME_ASSIGNMENT ( #80, #129, ( #122 ) ) ;
#50 = FACE_OUTER_BOUND ( 'NONE', #152, .T. ) ;
#51 = LOCAL_TIME ( 15, 34, 33.00000000000000000, #195 ) ;
#52 = CARTESIAN_POINT ( 'NONE',  ( 1.291848095371959215E-13, 4.099999999999993427, 37.00000000000000000 ) ) ;
#53 = COORDINATED_UNIVERSAL_TIME_OFFSET ( 1, 0, .AHEAD. ) ;
#54 = PERSON_AND_ORGANIZATION_ROLE ( 'design_supplier' ) ;
#55 = EDGE_CURVE ( 'NONE', #190, #190, #12, .T. ) ;
#56 = ORIENTED_EDGE ( 'NONE', *, *, #147, .F. ) ;
#57 = ADVANCED_FACE ( 'NONE', ( #132, #171 ), #32, .T. ) ;
#58 = CC_DESIGN_APPROVAL ( #44, ( #122 ) ) ;
#59 = DIRECTION ( 'NONE',  ( -3.491481338843133355E-15, 1.224646799147353207E-16, -1.000000000000000000 ) ) ;
#60 = DIRECTION ( 'NONE',  ( 4.275831445896958607E-31, 1.000000000000000000, 1.224646799147353207E-16 ) ) ;
#61 = VERTEX_POINT ( 'NONE', #118 ) ;
#62 = APPLICATION_CONTEXT ( 'configuration controlled 3d designs of mechanical parts and assemblies' ) ;
#63 = CLOSED_SHELL ( 'NONE', ( #99, #18, #135 ) ) ;
#64 = DIRECTION ( 'NONE',  ( -3.491481338843133355E-15, 1.224646799147353207E-16, -1.000000000000000000 ) ) ;
#65 = APPROVAL_STATUS ( 'not_yet_approved' ) ;
#66 = PERSON_AND_ORGANIZATION ( #139, #197 ) ;
#67 = SECURITY_CLASSIFICATION_LEVEL ( 'unclassified' ) ;
#68 = PERSON_AND_ORGANIZATION_ROLE ( 'creator' ) ;
#69 = FACE_OUTER_BOUND ( 'NONE', #203, .T. ) ;
#70 = ORIENTED_EDGE ( 'NONE', *, *, #184, .T. ) ;
#71 = ORIENTED_EDGE ( 'NONE', *, *, #55, .F. ) ;
#72 = CYLINDRICAL_SURFACE ( 'NONE', #22, 4.099999999999996092 ) ;
#73 = DIRECTION ( 'NONE',  ( -4.275831445896958607E-31, -1.000000000000000000, -1.224646799147353207E-16 ) ) ;
#74 = CC_DESIGN_SECURITY_CLASSIFICATION ( #168, ( #161 ) ) ;
#75 = CARTESIAN_POINT ( 'NONE',  ( 2.758270257686075477E-13, 2.474603641392053011E-32, 79.00000000000000000 ) ) ;
#76 = VERTEX_POINT ( 'NONE', #4 ) ;
#77 = DIRECTION ( 'NONE',  ( 3.491481338843133355E-15, -1.224646799147353207E-16, 1.000000000000000000 ) ) ;
#78 = AXIS2_PLACEMENT_3D ( 'NONE', #166, #145, #92 ) ;
#79 = DIRECTION ( 'NONE',  ( 0.0000000000000000000, 1.000000000000000000, 0.0000000000000000000 ) ) ;
#80 = DATE_AND_TIME ( #163, #51 ) ;
#81 = APPROVAL_ROLE ( '' ) ;
#82 = APPROVAL_ROLE ( '' ) ;
#83 = APPROVAL_DATE_TIME ( #26, #13 ) ;
#84 = CONICAL_SURFACE ( 'NONE', #94, 3.300000000000002931, 0.7853981633974518317 ) ;
#85 = CIRCLE ( 'NONE', #112, 4.099999999999997868 ) ;
#86 = DIRECTION ( 'NONE',  ( 4.275831445896958607E-31, 1.000000000000000000, 1.224646799147353207E-16 ) ) ;
#87 = CARTESIAN_POINT ( 'NONE',  ( 5.210260651422777956E-15, -1.827513427753991235E-16, 1.492277960491447120 ) ) ;
#88 = CARTESIAN_POINT ( 'NONE',  ( 2.758270257686075477E-13, 3.299999999999993605, 79.00000000000000000 ) ) ;
#89 = DIRECTION ( 'NONE',  ( -3.491481338843133355E-15, 1.224646799147353207E-16, -1.000000000000000000 ) ) ;
#90 = AXIS2_PLACEMENT_3D ( 'NONE', #175, #77, #117 ) ;
#91 = DATE_AND_TIME ( #40, #24 ) ;
#92 = DIRECTION ( 'NONE',  ( 1.000000000000000000, 0.0000000000000000000, 0.0000000000000000000 ) ) ;
#93 = UNCERTAINTY_MEASURE_WITH_UNIT (LENGTH_MEASURE( 1.000000000000000082E-05 ), #5, 'distance_accuracy_value', 'NONE');
#94 = AXIS2_PLACEMENT_3D ( 'NONE', #141, #116, #79 ) ;
#95 = APPROVAL ( #162, 'UNSPECIFIED' ) ;
#96 = AXIS2_PLACEMENT_3D ( 'NONE', #3, #105, #174 ) ;
#97 = EDGE_LOOP ( 'NONE', ( #70 ) ) ;
#98 = DIRECTION ( 'NONE',  ( 0.0000000000000000000, 1.000000000000000000, 0.0000000000000000000 ) ) ;
#99 = ADVANCED_FACE ( 'NONE', ( #144 ), #199, .T. ) ;
#100 = EDGE_LOOP ( 'NONE', ( #56 ) ) ;
#101 = FACE_OUTER_BOUND ( 'NONE', #100, .T. ) ;
#102 = CC_DESIGN_DATE_AND_TIME_ASSIGNMENT ( #193, #146, ( #168 ) ) ;
#103 = DIRECTION ( 'NONE',  ( -3.491481338843133355E-15, 1.224646799147353207E-16, -1.000000000000000000 ) ) ;
#104 = AXIS2_PLACEMENT_3D ( 'NONE', #155, #107, #158 ) ;
#105 = DIRECTION ( 'NONE',  ( -3.491481338843133355E-15, 1.224646799147353207E-16, -1.000000000000000000 ) ) ;
#106 =( NAMED_UNIT ( * ) PLANE_ANGLE_UNIT ( ) SI_UNIT ( $, .RADIAN. ) );
#107 = DIRECTION ( 'NONE',  ( 3.491481338843133355E-15, -1.224646799147353207E-16, 1.000000000000000000 ) ) ;
#108 = EDGE_CURVE ( 'NONE', #157, #157, #131, .T. ) ;
#109 = SHAPE_DEFINITION_REPRESENTATION ( #45, #38 ) ;
#110 = CALENDAR_DATE ( 2021, 15, 10 ) ;
#111 = APPROVAL_STATUS ( 'not_yet_approved' ) ;
#112 = AXIS2_PLACEMENT_3D ( 'NONE', #2, #103, #35 ) ;
#113 = AXIS2_PLACEMENT_3D ( 'NONE', #20, #59, #160 ) ;
#114 = ORIENTED_EDGE ( 'NONE', *, *, #55, .T. ) ;
#115 = CARTESIAN_POINT ( 'NONE',  ( 0.0000000000000000000, 0.0000000000000000000, 0.0000000000000000000 ) ) ;
#116 = DIRECTION ( 'NONE',  ( -3.491481338843133355E-15, 1.224646799147353207E-16, -1.000000000000000000 ) ) ;
#117 = DIRECTION ( 'NONE',  ( -4.275831445896958607E-31, -1.000000000000000000, -1.224646799147353207E-16 ) ) ;
#118 = CARTESIAN_POINT ( 'NONE',  ( 2.730338406975330915E-13, 4.099999999999994316, 78.20000000000000284 ) ) ;
#119 = CC_DESIGN_APPROVAL ( #13, ( #161 ) ) ;
#120 =( NAMED_UNIT ( * ) SI_UNIT ( $, .STERADIAN. ) SOLID_ANGLE_UNIT ( ) );
#121 = VERTEX_POINT ( 'NONE', #19 ) ;
#122 = PRODUCT_DEFINITION ( 'UNKNOWN', '', #161, #127 ) ;
#123 = CALENDAR_DATE ( 2021, 15, 10 ) ;
#124 = LOCAL_TIME ( 15, 34, 33.00000000000000000, #42 ) ;
#125 = APPROVAL_ROLE ( '' ) ;
#126 = CC_DESIGN_PERSON_AND_ORGANIZATION_ASSIGNMENT ( #128, #54, ( #161 ) ) ;
#127 = DESIGN_CONTEXT ( 'detailed design', #62, 'design' ) ;
#128 = PERSON_AND_ORGANIZATION ( #139, #197 ) ;
#129 = DATE_TIME_ROLE ( 'creation_date' ) ;
#130 = PERSON_AND_ORGANIZATION_ROLE ( 'creator' ) ;
#131 = CIRCLE ( 'NONE', #9, 4.099999999999997868 ) ;
#132 = FACE_OUTER_BOUND ( 'NONE', #200, .T. ) ;
#133 = ORIENTED_EDGE ( 'NONE', *, *, #167, .F. ) ;
#134 = EDGE_LOOP ( 'NONE', ( #169 ) ) ;
#135 = ADVANCED_FACE ( 'NONE', ( #101 ), #154, .T. ) ;
#136 = DIRECTION ( 'NONE',  ( -3.491481338843133355E-15, 1.224646799147353207E-16, -1.000000000000000000 ) ) ;
#137 = EDGE_LOOP ( 'NONE', ( #29 ) ) ;
#138 = PLANE ( 'NONE',  #156 ) ;
#139 = PERSON ( 'UNSPECIFIED', 'UNSPECIFIED', 'UNSPECIFIED', ('UNSPECIFIED'), ('UNSPECIFIED'), ('UNSPECIFIED') ) ;
#140 = PLANE ( 'NONE',  #90 ) ;
#141 = CARTESIAN_POINT ( 'NONE',  ( 2.758270257686075477E-13, -9.674709713264090904E-15, 79.00000000000000000 ) ) ;
#142 = CARTESIAN_POINT ( 'NONE',  ( 1.291848095371959215E-13, -4.531193156845206793E-15, 37.00000000000000000 ) ) ;
#143 = ADVANCED_FACE ( 'NONE', ( #50 ), #138, .F. ) ;
#144 = FACE_OUTER_BOUND ( 'NONE', #187, .T. ) ;
#145 = DIRECTION ( 'NONE',  ( 0.0000000000000000000, 0.0000000000000000000, 1.000000000000000000 ) ) ;
#146 = DATE_TIME_ROLE ( 'classification_date' ) ;
#147 = EDGE_CURVE ( 'NONE', #121, #121, #85, .T. ) ;
#148 = LOCAL_TIME ( 15, 34, 33.00000000000000000, #43 ) ;
#149 = PERSON_AND_ORGANIZATION ( #139, #197 ) ;
#150 = CALENDAR_DATE ( 2021, 15, 10 ) ;
#151 = MECHANICAL_CONTEXT ( 'NONE', #41, 'mechanical' ) ;
#152 = EDGE_LOOP ( 'NONE', ( #71 ) ) ;
#153 = CC_DESIGN_PERSON_AND_ORGANIZATION_ASSIGNMENT ( #23, #7, ( #15 ) ) ;
#154 = PLANE ( 'NONE',  #47 ) ;
#155 = CARTESIAN_POINT ( 'NONE',  ( 5.210260651422777956E-15, -1.827513427753991235E-16, 1.492277960491447120 ) ) ;
#156 = AXIS2_PLACEMENT_3D ( 'NONE', #75, #89, #60 ) ;
#157 = VERTEX_POINT ( 'NONE', #52 ) ;
#158 = DIRECTION ( 'NONE',  ( -3.757912086609246873E-31, -1.000000000000000000, -1.057758217059030457E-16 ) ) ;
#159 = CC_DESIGN_PERSON_AND_ORGANIZATION_ASSIGNMENT ( #10, #185, ( #168 ) ) ;
#160 = DIRECTION ( 'NONE',  ( 0.0000000000000000000, 1.000000000000000000, 0.0000000000000000000 ) ) ;
#161 = PRODUCT_DEFINITION_FORMATION_WITH_SPECIFIED_SOURCE ( 'ANY', '', #15, .NOT_KNOWN. ) ;
#162 = APPROVAL_STATUS ( 'not_yet_approved' ) ;
#163 = CALENDAR_DATE ( 2021, 15, 10 ) ;
#164 = APPROVAL_DATE_TIME ( #181, #95 ) ;
#165 = LOCAL_TIME ( 15, 34, 33.00000000000000000, #53 ) ;
#166 = CARTESIAN_POINT ( 'NONE',  ( 0.0000000000000000000, 0.0000000000000000000, 0.0000000000000000000 ) ) ;
#167 = EDGE_CURVE ( 'NONE', #76, #76, #31, .T. ) ;
#168 = SECURITY_CLASSIFICATION ( '', '', #67 ) ;
#169 = ORIENTED_EDGE ( 'NONE', *, *, #147, .T. ) ;
#170 = PRODUCT_RELATED_PRODUCT_CATEGORY ( 'detail', '', ( #15 ) ) ;
#171 = FACE_OUTER_BOUND ( 'NONE', #97, .T. ) ;
#172 = EDGE_LOOP ( 'NONE', ( #188 ) ) ;
#173 = DIRECTION ( 'NONE',  ( 0.0000000000000000000, 1.000000000000000000, 0.0000000000000000000 ) ) ;
#174 = DIRECTION ( 'NONE',  ( 4.275831445896957731E-31, 1.000000000000000000, 1.224646799147352961E-16 ) ) ;
#175 = CARTESIAN_POINT ( 'NONE',  ( 1.291848095371959215E-13, 3.074507554456800433E-32, 37.00000000000000000 ) ) ;
#176 =( GEOMETRIC_REPRESENTATION_CONTEXT ( 3 ) GLOBAL_UNCERTAINTY_ASSIGNED_CONTEXT ( ( #93 ) ) GLOBAL_UNIT_ASSIGNED_CONTEXT ( ( #5, #106, #120 ) ) REPRESENTATION_CONTEXT ( 'NONE', 'WORKASPACE' ) );
#177 = CC_DESIGN_PERSON_AND_ORGANIZATION_ASSIGNMENT ( #196, #130, ( #161 ) ) ;
#178 = APPLICATION_PROTOCOL_DEFINITION ( 'international standard', 'config_control_design', 1994, #62 ) ;
#179 = MANIFOLD_SOLID_BREP ( 'Corps-Déplacer/Copier1[2]', #63 ) ;
#180 = MANIFOLD_SOLID_BREP ( 'Corps-Déplacer/Copier1[1]', #30 ) ;
#181 = DATE_AND_TIME ( #110, #165 ) ;
#182 = AXIS2_PLACEMENT_3D ( 'NONE', #201, #189, #98 ) ;
#183 = COORDINATED_UNIVERSAL_TIME_OFFSET ( 1, 0, .AHEAD. ) ;
#184 = EDGE_CURVE ( 'NONE', #61, #61, #14, .T. ) ;
#185 = PERSON_AND_ORGANIZATION_ROLE ( 'classification_officer' ) ;
#186 = ADVANCED_FACE ( 'NONE', ( #192, #21 ), #84, .T. ) ;
#187 = EDGE_LOOP ( 'NONE', ( #48 ) ) ;
#188 = ORIENTED_EDGE ( 'NONE', *, *, #184, .F. ) ;
#189 = DIRECTION ( 'NONE',  ( -3.491481338843133355E-15, 1.224646799147353207E-16, -1.000000000000000000 ) ) ;
#190 = VERTEX_POINT ( 'NONE', #88 ) ;
#191 = APPROVAL_PERSON_ORGANIZATION ( #149, #44, #82 ) ;
#192 = FACE_OUTER_BOUND ( 'NONE', #172, .T. ) ;
#193 = DATE_AND_TIME ( #123, #124 ) ;
#194 = CC_DESIGN_APPROVAL ( #95, ( #168 ) ) ;
#195 = COORDINATED_UNIVERSAL_TIME_OFFSET ( 1, 0, .AHEAD. ) ;
#196 = PERSON_AND_ORGANIZATION ( #139, #197 ) ;
#197 = ORGANIZATION ( 'UNSPECIFIED', 'UNSPECIFIED', '' ) ;
#198 = FACE_OUTER_BOUND ( 'NONE', #134, .T. ) ;
#199 = CONICAL_SURFACE ( 'NONE', #104, 4.099999999999993427, 1.221730476396026388 ) ;
#200 = EDGE_LOOP ( 'NONE', ( #46 ) ) ;
#201 = CARTESIAN_POINT ( 'NONE',  ( 2.758270257686075477E-13, -9.674709713264090904E-15, 79.00000000000000000 ) ) ;
#202 = ADVANCED_FACE ( 'NONE', ( #17 ), #140, .F. ) ;
#203 = EDGE_LOOP ( 'NONE', ( #133 ) ) ;
ENDSEC;
END-ISO-10303-21;
