ISO-10303-21;
HEADER;
FILE_DESCRIPTION (( 'STEP AP203' ),
    '1' );
FILE_NAME ('321845.step',
    '2021-12-02T12:58:28',
    ( '' ),
    ( '' ),
    'SwSTEP 2.0',
    'SolidWorks 2019',
    '' );
FILE_SCHEMA (( 'CONFIG_CONTROL_DESIGN' ));
ENDSEC;

DATA;
#1 = APPROVAL_STATUS ( 'not_yet_approved' ) ;
#2 = AXIS2_PLACEMENT_3D ( 'NONE', #110, #72, #231 ) ;
#3 = DIRECTION ( 'NONE',  ( 3.491481338843133355E-15, -1.224646799147353207E-16, 1.000000000000000000 ) ) ;
#4 = FACE_OUTER_BOUND ( 'NONE', #243, .T. ) ;
#5 = CC_DESIGN_APPROVAL ( #104, ( #130 ) ) ;
#6 = EDGE_LOOP ( 'NONE', ( #40 ) ) ;
#7 = ADVANCED_FACE ( 'NONE', ( #200, #107 ), #224, .T. ) ;
#8 = CARTESIAN_POINT ( 'NONE',  ( 0.0000000000000000000, 0.0000000000000000000, 0.0000000000000000000 ) ) ;
#9 = AXIS2_PLACEMENT_3D ( 'NONE', #84, #208, #11 ) ;
#10 = FACE_OUTER_BOUND ( 'NONE', #19, .T. ) ;
#11 = DIRECTION ( 'NONE',  ( 0.0000000000000000000, 1.000000000000000000, 0.0000000000000000000 ) ) ;
#12 = APPROVAL_STATUS ( 'not_yet_approved' ) ;
#13 = APPROVAL_PERSON_ORGANIZATION ( #194, #104, #52 ) ;
#14 = APPROVAL_DATE_TIME ( #35, #104 ) ;
#15 = SHAPE_DEFINITION_REPRESENTATION ( #148, #60 ) ;
#16 = CARTESIAN_POINT ( 'NONE',  ( 0.0000000000000000000, 0.0000000000000000000, 0.0000000000000000000 ) ) ;
#17 = DATE_AND_TIME ( #242, #201 ) ;
#18 = CC_DESIGN_DATE_AND_TIME_ASSIGNMENT ( #184, #109, ( #228 ) ) ;
#19 = EDGE_LOOP ( 'NONE', ( #50 ) ) ;
#20 = APPROVAL ( #220, 'UNSPECIFIED' ) ;
#21 = EDGE_LOOP ( 'NONE', ( #46 ) ) ;
#22 = EDGE_LOOP ( 'NONE', ( #150 ) ) ;
#23 = CC_DESIGN_DATE_AND_TIME_ASSIGNMENT ( #127, #58, ( #98 ) ) ;
#24 = AXIS2_PLACEMENT_3D ( 'NONE', #34, #89, #112 ) ;
#25 = DIRECTION ( 'NONE',  ( -3.491481338843133355E-15, 1.224646799147353207E-16, -1.000000000000000000 ) ) ;
#26 = DIRECTION ( 'NONE',  ( -3.491481338843133355E-15, 1.224646799147353207E-16, -1.000000000000000000 ) ) ;
#27 = DIRECTION ( 'NONE',  ( -3.491481338843133355E-15, 1.224646799147353207E-16, -1.000000000000000000 ) ) ;
#28 = CC_DESIGN_PERSON_AND_ORGANIZATION_ASSIGNMENT ( #155, #234, ( #93 ) ) ;
#29 = CIRCLE ( 'NONE', #159, 3.095000000000025508 ) ;
#30 = VERTEX_POINT ( 'NONE', #211 ) ;
#31 = DIRECTION ( 'NONE',  ( -3.491481338843133355E-15, 1.224646799147353207E-16, -1.000000000000000000 ) ) ;
#32 = CIRCLE ( 'NONE', #59, 2.000000000000000888 ) ;
#33 = COORDINATED_UNIVERSAL_TIME_OFFSET ( 1, 0, .AHEAD. ) ;
#34 = CARTESIAN_POINT ( 'NONE',  ( 2.793185071074506684E-13, -9.797174393178826052E-15, 80.00000000000000000 ) ) ;
#35 = DATE_AND_TIME ( #56, #142 ) ;
#36 = AXIS2_PLACEMENT_3D ( 'NONE', #221, #37, #153 ) ;
#37 = DIRECTION ( 'NONE',  ( -3.491481338843133355E-15, 1.224646799147353207E-16, -1.000000000000000000 ) ) ;
#38 = PLANE ( 'NONE',  #128 ) ;
#39 = DIRECTION ( 'NONE',  ( 4.275831445896958607E-31, 1.000000000000000000, 1.224646799147353207E-16 ) ) ;
#40 = ORIENTED_EDGE ( 'NONE', *, *, #64, .F. ) ;
#41 = DIRECTION ( 'NONE',  ( 1.000000000000000000, 0.0000000000000000000, 0.0000000000000000000 ) ) ;
#42 = PERSON_AND_ORGANIZATION ( #205, #94 ) ;
#43 = ADVANCED_FACE ( 'NONE', ( #124 ), #90, .T. ) ;
#44 = VERTEX_POINT ( 'NONE', #157 ) ;
#45 = CIRCLE ( 'NONE', #24, 1.600000000000000977 ) ;
#46 = ORIENTED_EDGE ( 'NONE', *, *, #209, .T. ) ;
#47 = CC_DESIGN_APPROVAL ( #20, ( #228 ) ) ;
#48 = ADVANCED_FACE ( 'NONE', ( #63, #169 ), #202, .T. ) ;
#49 = FACE_OUTER_BOUND ( 'NONE', #149, .T. ) ;
#50 = ORIENTED_EDGE ( 'NONE', *, *, #170, .T. ) ;
#51 = APPROVAL_DATE_TIME ( #162, #20 ) ;
#52 = APPROVAL_ROLE ( '' ) ;
#53 = COORDINATED_UNIVERSAL_TIME_OFFSET ( 1, 0, .AHEAD. ) ;
#54 = CARTESIAN_POINT ( 'NONE',  ( 4.189777606611760026E-14, 2.320878263669241863E-32, 12.00000000000000000 ) ) ;
#55 = ADVANCED_FACE ( 'NONE', ( #73 ), #77, .F. ) ;
#56 = CALENDAR_DATE ( 2021, 2, 12 ) ;
#57 = ORIENTED_EDGE ( 'NONE', *, *, #173, .T. ) ;
#58 = DATE_TIME_ROLE ( 'classification_date' ) ;
#59 = AXIS2_PLACEMENT_3D ( 'NONE', #223, #25, #164 ) ;
#60 = ADVANCED_BREP_SHAPE_REPRESENTATION ( '321845', ( #136, #61, #192 ), #86 ) ;
#61 = MANIFOLD_SOLID_BREP ( 'Corps-Déplacer/Copier1[2]', #229 ) ;
#62 = PLANE ( 'NONE',  #119 ) ;
#63 = FACE_BOUND ( 'NONE', #79, .T. ) ;
#64 = EDGE_CURVE ( 'NONE', #30, #30, #32, .T. ) ;
#65 = EDGE_LOOP ( 'NONE', ( #118 ) ) ;
#66 = CARTESIAN_POINT ( 'NONE',  ( 4.189777606611760026E-14, 3.095000000000023732, 12.00000000000000000 ) ) ;
#67 = APPLICATION_PROTOCOL_DEFINITION ( 'international standard', 'config_control_design', 1994, #113 ) ;
#68 = DIRECTION ( 'NONE',  ( 0.0000000000000000000, 1.000000000000000000, 0.0000000000000000000 ) ) ;
#69 = VERTEX_POINT ( 'NONE', #156 ) ;
#70 = CALENDAR_DATE ( 2021, 2, 12 ) ;
#71 = CC_DESIGN_PERSON_AND_ORGANIZATION_ASSIGNMENT ( #217, #106, ( #228 ) ) ;
#72 = DIRECTION ( 'NONE',  ( -3.491481338843133355E-15, 1.224646799147353207E-16, -1.000000000000000000 ) ) ;
#73 = FACE_OUTER_BOUND ( 'NONE', #132, .T. ) ;
#74 = SECURITY_CLASSIFICATION_LEVEL ( 'unclassified' ) ;
#75 = ADVANCED_FACE ( 'NONE', ( #241, #226 ), #91, .T. ) ;
#76 = LOCAL_TIME ( 13, 58, 28.00000000000000000, #144 ) ;
#77 = PLANE ( 'NONE',  #2 ) ;
#78 = DIRECTION ( 'NONE',  ( -4.275831445896958607E-31, -1.000000000000000000, -1.224646799147353207E-16 ) ) ;
#79 = EDGE_LOOP ( 'NONE', ( #57 ) ) ;
#80 = CARTESIAN_POINT ( 'NONE',  ( 1.396592535537253342E-15, 3.095000000000025508, 0.3999999999999999667 ) ) ;
#81 = DESIGN_CONTEXT ( 'detailed design', #113, 'design' ) ;
#82 = AXIS2_PLACEMENT_3D ( 'NONE', #114, #27, #188 ) ;
#83 =( NAMED_UNIT ( * ) PLANE_ANGLE_UNIT ( ) SI_UNIT ( $, .RADIAN. ) );
#84 = CARTESIAN_POINT ( 'NONE',  ( 2.793185071074506684E-13, -9.797174393178826052E-15, 80.00000000000000000 ) ) ;
#85 = APPLICATION_PROTOCOL_DEFINITION ( 'international standard', 'config_control_design', 1994, #88 ) ;
#86 =( GEOMETRIC_REPRESENTATION_CONTEXT ( 3 ) GLOBAL_UNCERTAINTY_ASSIGNED_CONTEXT ( ( #174 ) ) GLOBAL_UNIT_ASSIGNED_CONTEXT ( ( #154, #83, #137 ) ) REPRESENTATION_CONTEXT ( 'NONE', 'WORKASPACE' ) );
#87 = PERSON_AND_ORGANIZATION ( #205, #94 ) ;
#88 = APPLICATION_CONTEXT ( 'configuration controlled 3d designs of mechanical parts and assemblies' ) ;
#89 = DIRECTION ( 'NONE',  ( -3.491481338843133355E-15, 1.224646799147353207E-16, -1.000000000000000000 ) ) ;
#90 = PLANE ( 'NONE',  #146 ) ;
#91 = CYLINDRICAL_SURFACE ( 'NONE', #182, 1.999999999999996669 ) ;
#92 = DIRECTION ( 'NONE',  ( -3.491481338843133355E-15, 1.224646799147353207E-16, -1.000000000000000000 ) ) ;
#93 = PRODUCT ( '321845', '321845', '', ( #158 ) ) ;
#94 = ORGANIZATION ( 'UNSPECIFIED', 'UNSPECIFIED', '' ) ;
#95 = CARTESIAN_POINT ( 'NONE',  ( 4.189777606611760026E-14, -1.469576158976823947E-15, 12.00000000000000000 ) ) ;
#96 = CARTESIAN_POINT ( 'NONE',  ( -1.152336574669240459E-30, 4.041852614273741778E-32, -3.300423123702145947E-16 ) ) ;
#97 = AXIS2_PLACEMENT_3D ( 'NONE', #117, #31, #178 ) ;
#98 = SECURITY_CLASSIFICATION ( '', '', #74 ) ;
#99 = CARTESIAN_POINT ( 'NONE',  ( 4.189777606611760026E-14, 3.095000000000023732, 12.00000000000000000 ) ) ;
#100 = DIRECTION ( 'NONE',  ( -3.491481338843133355E-15, 1.224646799147353207E-16, -1.000000000000000000 ) ) ;
#101 = ADVANCED_FACE ( 'NONE', ( #4 ), #38, .F. ) ;
#102 = PERSON_AND_ORGANIZATION ( #205, #94 ) ;
#103 = CALENDAR_DATE ( 2021, 2, 12 ) ;
#104 = APPROVAL ( #1, 'UNSPECIFIED' ) ;
#105 = COORDINATED_UNIVERSAL_TIME_OFFSET ( 1, 0, .AHEAD. ) ;
#106 = PERSON_AND_ORGANIZATION_ROLE ( 'creator' ) ;
#107 = FACE_BOUND ( 'NONE', #22, .T. ) ;
#108 = AXIS2_PLACEMENT_3D ( 'NONE', #203, #230, #131 ) ;
#109 = DATE_TIME_ROLE ( 'creation_date' ) ;
#110 = CARTESIAN_POINT ( 'NONE',  ( 2.793185071074506684E-13, 1.199807826129472128E-32, 80.00000000000000000 ) ) ;
#111 = CLOSED_SHELL ( 'NONE', ( #101, #48, #75, #193, #55 ) ) ;
#112 = DIRECTION ( 'NONE',  ( 0.0000000000000000000, 1.000000000000000000, 0.0000000000000000000 ) ) ;
#113 = APPLICATION_CONTEXT ( 'configuration controlled 3d designs of mechanical parts and assemblies' ) ;
#114 = CARTESIAN_POINT ( 'NONE',  ( 4.851970433056541678E-14, -1.701842136257584967E-15, 13.89659563428797284 ) ) ;
#115 = ORIENTED_EDGE ( 'NONE', *, *, #167, .T. ) ;
#116 = CIRCLE ( 'NONE', #108, 3.095000000000025064 ) ;
#117 = CARTESIAN_POINT ( 'NONE',  ( 0.0000000000000000000, 0.0000000000000000000, 0.0000000000000000000 ) ) ;
#118 = ORIENTED_EDGE ( 'NONE', *, *, #173, .F. ) ;
#119 = AXIS2_PLACEMENT_3D ( 'NONE', #129, #152, #197 ) ;
#120 = CIRCLE ( 'NONE', #160, 3.095000000000025064 ) ;
#121 = CALENDAR_DATE ( 2021, 2, 12 ) ;
#122 = PERSON_AND_ORGANIZATION_ROLE ( 'design_supplier' ) ;
#123 = PERSON_AND_ORGANIZATION ( #205, #94 ) ;
#124 = FACE_OUTER_BOUND ( 'NONE', #21, .T. ) ;
#125 = CARTESIAN_POINT ( 'NONE',  ( -1.152336574669240459E-30, 4.041852614273741778E-32, -3.300423123702145947E-16 ) ) ;
#126 = EDGE_LOOP ( 'NONE', ( #115 ) ) ;
#127 = DATE_AND_TIME ( #103, #225 ) ;
#128 = AXIS2_PLACEMENT_3D ( 'NONE', #54, #3, #78 ) ;
#129 = CARTESIAN_POINT ( 'NONE',  ( 4.189777606611760026E-14, 2.320878263669241863E-32, 12.00000000000000000 ) ) ;
#130 = PRODUCT_DEFINITION_FORMATION_WITH_SPECIFIED_SOURCE ( 'ANY', '', #93, .NOT_KNOWN. ) ;
#131 = DIRECTION ( 'NONE',  ( 0.0000000000000000000, 1.000000000000000000, 0.0000000000000000000 ) ) ;
#132 = EDGE_LOOP ( 'NONE', ( #145 ) ) ;
#133 = DIRECTION ( 'NONE',  ( 0.0000000000000000000, 0.0000000000000000000, 1.000000000000000000 ) ) ;
#134 = CC_DESIGN_APPROVAL ( #181, ( #98 ) ) ;
#135 = VERTEX_POINT ( 'NONE', #216 ) ;
#136 = MANIFOLD_SOLID_BREP ( 'Corps-Déplacer/Copier1[1]', #111 ) ;
#137 =( NAMED_UNIT ( * ) SI_UNIT ( $, .STERADIAN. ) SOLID_ANGLE_UNIT ( ) );
#138 = PRODUCT_RELATED_PRODUCT_CATEGORY ( 'detail', '', ( #93 ) ) ;
#139 = DIRECTION ( 'NONE',  ( -3.491481338843133355E-15, 1.224646799147353207E-16, -1.000000000000000000 ) ) ;
#140 = APPROVAL_ROLE ( '' ) ;
#141 = CIRCLE ( 'NONE', #239, 2.695000000000023821 ) ;
#142 = LOCAL_TIME ( 13, 58, 28.00000000000000000, #53 ) ;
#143 = DIRECTION ( 'NONE',  ( -3.491481338843133355E-15, 1.224646799147353207E-16, -1.000000000000000000 ) ) ;
#144 = COORDINATED_UNIVERSAL_TIME_OFFSET ( 1, 0, .AHEAD. ) ;
#145 = ORIENTED_EDGE ( 'NONE', *, *, #167, .F. ) ;
#146 = AXIS2_PLACEMENT_3D ( 'NONE', #204, #92, #39 ) ;
#147 = ADVANCED_FACE ( 'NONE', ( #168 ), #62, .T. ) ;
#148 = PRODUCT_DEFINITION_SHAPE ( 'NONE', 'NONE',  #228 ) ;
#149 = EDGE_LOOP ( 'NONE', ( #227 ) ) ;
#150 = ORIENTED_EDGE ( 'NONE', *, *, #209, .F. ) ;
#151 = APPROVAL_PERSON_ORGANIZATION ( #42, #20, #140 ) ;
#152 = DIRECTION ( 'NONE',  ( 3.491481338843133355E-15, -1.224646799147353207E-16, 1.000000000000000000 ) ) ;
#153 = DIRECTION ( 'NONE',  ( 0.0000000000000000000, 1.000000000000000000, 0.0000000000000000000 ) ) ;
#154 =( LENGTH_UNIT ( ) NAMED_UNIT ( * ) SI_UNIT ( .MILLI., .METRE. ) );
#155 = PERSON_AND_ORGANIZATION ( #205, #94 ) ;
#156 = CARTESIAN_POINT ( 'NONE',  ( 0.0000000000000000000, 2.695000000000023821, 0.0000000000000000000 ) ) ;
#157 = CARTESIAN_POINT ( 'NONE',  ( 2.793185071074506684E-13, 1.599999999999991207, 80.00000000000000000 ) ) ;
#158 = MECHANICAL_CONTEXT ( 'NONE', #88, 'mechanical' ) ;
#159 = AXIS2_PLACEMENT_3D ( 'NONE', #177, #139, #190 ) ;
#160 = AXIS2_PLACEMENT_3D ( 'NONE', #95, #100, #68 ) ;
#161 = CC_DESIGN_PERSON_AND_ORGANIZATION_ASSIGNMENT ( #123, #198, ( #98 ) ) ;
#162 = DATE_AND_TIME ( #70, #76 ) ;
#163 = PERSON_AND_ORGANIZATION ( #205, #94 ) ;
#164 = DIRECTION ( 'NONE',  ( 0.0000000000000000000, 1.000000000000000000, 0.0000000000000000000 ) ) ;
#165 = AXIS2_PLACEMENT_3D ( 'NONE', #125, #171, #187 ) ;
#166 = PERSON_AND_ORGANIZATION_ROLE ( 'creator' ) ;
#167 = EDGE_CURVE ( 'NONE', #44, #44, #45, .T. ) ;
#168 = FACE_OUTER_BOUND ( 'NONE', #183, .T. ) ;
#169 = FACE_OUTER_BOUND ( 'NONE', #179, .T. ) ;
#170 = EDGE_CURVE ( 'NONE', #213, #213, #116, .T. ) ;
#171 = DIRECTION ( 'NONE',  ( 3.491481338843133355E-15, -1.224646799147353207E-16, 1.000000000000000000 ) ) ;
#172 = EDGE_LOOP ( 'NONE', ( #237 ) ) ;
#173 = EDGE_CURVE ( 'NONE', #135, #135, #212, .T. ) ;
#174 = UNCERTAINTY_MEASURE_WITH_UNIT (LENGTH_MEASURE( 1.000000000000000082E-05 ), #154, 'distance_accuracy_value', 'NONE');
#175 = FACE_BOUND ( 'NONE', #126, .T. ) ;
#176 = ORIENTED_EDGE ( 'NONE', *, *, #170, .F. ) ;
#177 = CARTESIAN_POINT ( 'NONE',  ( 1.396592535537251962E-15, -4.898587196589407529E-17, 0.3999999999999995781 ) ) ;
#178 = DIRECTION ( 'NONE',  ( 4.275831445896959482E-31, 1.000000000000000000, 1.224646799147353454E-16 ) ) ;
#179 = EDGE_LOOP ( 'NONE', ( #206 ) ) ;
#180 = EDGE_LOOP ( 'NONE', ( #219 ) ) ;
#181 = APPROVAL ( #12, 'UNSPECIFIED' ) ;
#182 = AXIS2_PLACEMENT_3D ( 'NONE', #16, #143, #185 ) ;
#183 = EDGE_LOOP ( 'NONE', ( #176 ) ) ;
#184 = DATE_AND_TIME ( #121, #240 ) ;
#185 = DIRECTION ( 'NONE',  ( 4.275831445896958607E-31, 1.000000000000000000, 1.224646799147353207E-16 ) ) ;
#186 = ORIENTED_EDGE ( 'NONE', *, *, #215, .T. ) ;
#187 = DIRECTION ( 'NONE',  ( -4.275831445896958607E-31, -1.000000000000000000, -1.224646799147353207E-16 ) ) ;
#188 = DIRECTION ( 'NONE',  ( 0.0000000000000000000, 1.000000000000000000, 0.0000000000000000000 ) ) ;
#189 = EDGE_CURVE ( 'NONE', #236, #236, #29, .T. ) ;
#190 = DIRECTION ( 'NONE',  ( 4.355899712668994673E-31, 1.000000000000000000, 1.226076770177458438E-16 ) ) ;
#191 = DIRECTION ( 'NONE',  ( 4.275831445896958607E-31, 1.000000000000000000, 1.224646799147353207E-16 ) ) ;
#192 = AXIS2_PLACEMENT_3D ( 'NONE', #8, #133, #41 ) ;
#193 = ADVANCED_FACE ( 'NONE', ( #235, #175 ), #199, .T. ) ;
#194 = PERSON_AND_ORGANIZATION ( #205, #94 ) ;
#195 = ADVANCED_FACE ( 'NONE', ( #10, #49 ), #210, .T. ) ;
#196 = APPROVAL_DATE_TIME ( #17, #181 ) ;
#197 = DIRECTION ( 'NONE',  ( -4.275831445896958607E-31, -1.000000000000000000, -1.224646799147353207E-16 ) ) ;
#198 = PERSON_AND_ORGANIZATION_ROLE ( 'classification_officer' ) ;
#199 = CONICAL_SURFACE ( 'NONE', #9, 1.600000000000000977, 0.7853981633974512766 ) ;
#200 = FACE_OUTER_BOUND ( 'NONE', #172, .T. ) ;
#201 = LOCAL_TIME ( 13, 58, 28.00000000000000000, #33 ) ;
#202 = CONICAL_SURFACE ( 'NONE', #36, 3.095000000000025064, 0.5235987755983001479 ) ;
#203 = CARTESIAN_POINT ( 'NONE',  ( 4.189777606611760026E-14, -1.469576158976823947E-15, 12.00000000000000000 ) ) ;
#204 = CARTESIAN_POINT ( 'NONE',  ( -5.761682873346202296E-31, 2.020926307136870889E-32, -1.650211561851072973E-16 ) ) ;
#205 = PERSON ( 'UNSPECIFIED', 'UNSPECIFIED', 'UNSPECIFIED', ('UNSPECIFIED'), ('UNSPECIFIED'), ('UNSPECIFIED') ) ;
#206 = ORIENTED_EDGE ( 'NONE', *, *, #215, .F. ) ;
#207 = CC_DESIGN_SECURITY_CLASSIFICATION ( #98, ( #130 ) ) ;
#208 = DIRECTION ( 'NONE',  ( -3.491481338843133355E-15, 1.224646799147353207E-16, -1.000000000000000000 ) ) ;
#209 = EDGE_CURVE ( 'NONE', #69, #69, #141, .T. ) ;
#210 = CYLINDRICAL_SURFACE ( 'NONE', #97, 3.095000000000025508 ) ;
#211 = CARTESIAN_POINT ( 'NONE',  ( 2.779219145719134403E-13, 1.999999999999991340, 79.60000000000000853 ) ) ;
#212 = CIRCLE ( 'NONE', #82, 1.999999999999992228 ) ;
#213 = VERTEX_POINT ( 'NONE', #66 ) ;
#214 = APPROVAL_PERSON_ORGANIZATION ( #163, #181, #238 ) ;
#215 = EDGE_CURVE ( 'NONE', #233, #233, #120, .T. ) ;
#216 = CARTESIAN_POINT ( 'NONE',  ( 4.851970433056541678E-14, 1.999999999999990452, 13.89659563428797284 ) ) ;
#217 = PERSON_AND_ORGANIZATION ( #205, #94 ) ;
#218 = CC_DESIGN_PERSON_AND_ORGANIZATION_ASSIGNMENT ( #102, #166, ( #130 ) ) ;
#219 = ORIENTED_EDGE ( 'NONE', *, *, #64, .T. ) ;
#220 = APPROVAL_STATUS ( 'not_yet_approved' ) ;
#221 = CARTESIAN_POINT ( 'NONE',  ( 4.189777606611760026E-14, -1.469576158976823947E-15, 12.00000000000000000 ) ) ;
#222 = COORDINATED_UNIVERSAL_TIME_OFFSET ( 1, 0, .AHEAD. ) ;
#223 = CARTESIAN_POINT ( 'NONE',  ( 2.779219145719134403E-13, -9.748188521212932624E-15, 79.60000000000000853 ) ) ;
#224 = CONICAL_SURFACE ( 'NONE', #165, 2.695000000000023821, 0.7853981633974508325 ) ;
#225 = LOCAL_TIME ( 13, 58, 28.00000000000000000, #105 ) ;
#226 = FACE_OUTER_BOUND ( 'NONE', #180, .T. ) ;
#227 = ORIENTED_EDGE ( 'NONE', *, *, #189, .F. ) ;
#228 = PRODUCT_DEFINITION ( 'UNKNOWN', '', #130, #81 ) ;
#229 = CLOSED_SHELL ( 'NONE', ( #195, #147, #43, #7 ) ) ;
#230 = DIRECTION ( 'NONE',  ( -3.491481338843133355E-15, 1.224646799147353207E-16, -1.000000000000000000 ) ) ;
#231 = DIRECTION ( 'NONE',  ( 4.275831445896958607E-31, 1.000000000000000000, 1.224646799147353207E-16 ) ) ;
#232 = CC_DESIGN_PERSON_AND_ORGANIZATION_ASSIGNMENT ( #87, #122, ( #130 ) ) ;
#233 = VERTEX_POINT ( 'NONE', #99 ) ;
#234 = PERSON_AND_ORGANIZATION_ROLE ( 'design_owner' ) ;
#235 = FACE_OUTER_BOUND ( 'NONE', #6, .T. ) ;
#236 = VERTEX_POINT ( 'NONE', #80 ) ;
#237 = ORIENTED_EDGE ( 'NONE', *, *, #189, .T. ) ;
#238 = APPROVAL_ROLE ( '' ) ;
#239 = AXIS2_PLACEMENT_3D ( 'NONE', #96, #26, #191 ) ;
#240 = LOCAL_TIME ( 13, 58, 28.00000000000000000, #222 ) ;
#241 = FACE_OUTER_BOUND ( 'NONE', #65, .T. ) ;
#242 = CALENDAR_DATE ( 2021, 2, 12 ) ;
#243 = EDGE_LOOP ( 'NONE', ( #186 ) ) ;
ENDSEC;
END-ISO-10303-21;
