ISO-10303-21;
HEADER;
FILE_DESCRIPTION (( 'STEP AP203' ),
    '1' );
FILE_NAME ('321841.step',
    '2021-12-02T12:58:25',
    ( '' ),
    ( '' ),
    'SwSTEP 2.0',
    'SolidWorks 2019',
    '' );
FILE_SCHEMA (( 'CONFIG_CONTROL_DESIGN' ));
ENDSEC;

DATA;
#1 = AXIS2_PLACEMENT_3D ( 'NONE', #71, #196, #181 ) ;
#2 =( NAMED_UNIT ( * ) SI_UNIT ( $, .STERADIAN. ) SOLID_ANGLE_UNIT ( ) );
#3 = SHAPE_DEFINITION_REPRESENTATION ( #24, #203 ) ;
#4 = FACE_OUTER_BOUND ( 'NONE', #85, .T. ) ;
#5 = DIRECTION ( 'NONE',  ( 0.0000000000000000000, 1.000000000000000000, 0.0000000000000000000 ) ) ;
#6 = PERSON_AND_ORGANIZATION_ROLE ( 'classification_officer' ) ;
#7 = FACE_OUTER_BOUND ( 'NONE', #83, .T. ) ;
#8 = EDGE_CURVE ( 'NONE', #189, #189, #186, .T. ) ;
#9 = CARTESIAN_POINT ( 'NONE',  ( 1.396592535537251173E-15, -4.898587196589405063E-17, 0.3999999999999993561 ) ) ;
#10 = CARTESIAN_POINT ( 'NONE',  ( 4.189777606611760026E-14, -1.469576158976823947E-15, 12.00000000000000000 ) ) ;
#11 = ORIENTED_EDGE ( 'NONE', *, *, #111, .T. ) ;
#12 = PRODUCT ( '321841', '321841', '', ( #32 ) ) ;
#13 = VERTEX_POINT ( 'NONE', #159 ) ;
#14 = DIRECTION ( 'NONE',  ( -4.275831445896958607E-31, -1.000000000000000000, -1.224646799147353207E-16 ) ) ;
#15 = DATE_AND_TIME ( #192, #110 ) ;
#16 = DATE_AND_TIME ( #115, #202 ) ;
#17 = DATE_AND_TIME ( #216, #69 ) ;
#18 = FACE_OUTER_BOUND ( 'NONE', #226, .T. ) ;
#19 = DIRECTION ( 'NONE',  ( 0.0000000000000000000, 1.000000000000000000, 0.0000000000000000000 ) ) ;
#20 = CONICAL_SURFACE ( 'NONE', #163, 1.600000000000000977, 0.7853981633974512766 ) ;
#21 = CARTESIAN_POINT ( 'NONE',  ( -1.143784911777446574E-30, 4.011857418620504954E-32, -3.275930187719198937E-16 ) ) ;
#22 = EDGE_CURVE ( 'NONE', #212, #212, #125, .T. ) ;
#23 = DESIGN_CONTEXT ( 'detailed design', #149, 'design' ) ;
#24 = PRODUCT_DEFINITION_SHAPE ( 'NONE', 'NONE',  #160 ) ;
#25 = ORIENTED_EDGE ( 'NONE', *, *, #101, .T. ) ;
#26 = ADVANCED_FACE ( 'NONE', ( #199 ), #183, .T. ) ;
#27 = CC_DESIGN_PERSON_AND_ORGANIZATION_ASSIGNMENT ( #179, #194, ( #160 ) ) ;
#28 = CC_DESIGN_APPROVAL ( #91, ( #61 ) ) ;
#29 = DIRECTION ( 'NONE',  ( -3.491481338843133355E-15, 1.224646799147353207E-16, -1.000000000000000000 ) ) ;
#30 = EDGE_LOOP ( 'NONE', ( #67 ) ) ;
#31 = ADVANCED_FACE ( 'NONE', ( #168, #56 ), #41, .T. ) ;
#32 = MECHANICAL_CONTEXT ( 'NONE', #80, 'mechanical' ) ;
#33 = APPROVAL_STATUS ( 'not_yet_approved' ) ;
#34 = DATE_TIME_ROLE ( 'classification_date' ) ;
#35 = MANIFOLD_SOLID_BREP ( 'Corps-Déplacer/Copier1[2]', #128 ) ;
#36 = ORGANIZATION ( 'UNSPECIFIED', 'UNSPECIFIED', '' ) ;
#37 = DIRECTION ( 'NONE',  ( -3.491481338843133355E-15, 1.224646799147353207E-16, -1.000000000000000000 ) ) ;
#38 = DIRECTION ( 'NONE',  ( -3.491481338843133355E-15, 1.224646799147353207E-16, -1.000000000000000000 ) ) ;
#39 = PERSON_AND_ORGANIZATION ( #64, #36 ) ;
#40 = CARTESIAN_POINT ( 'NONE',  ( -5.718924558887232868E-31, 2.005928709310252477E-32, -1.637965093859599468E-16 ) ) ;
#41 = CONICAL_SURFACE ( 'NONE', #184, 2.675000000000023803, 0.7853981633974504994 ) ;
#42 = DIRECTION ( 'NONE',  ( -3.491481338843133355E-15, 1.224646799147353207E-16, -1.000000000000000000 ) ) ;
#43 = AXIS2_PLACEMENT_3D ( 'NONE', #10, #29, #136 ) ;
#44 = DATE_TIME_ROLE ( 'creation_date' ) ;
#45 = LOCAL_TIME ( 13, 58, 25.00000000000000000, #195 ) ;
#46 = EDGE_LOOP ( 'NONE', ( #223 ) ) ;
#47 = PERSON_AND_ORGANIZATION ( #64, #36 ) ;
#48 = VERTEX_POINT ( 'NONE', #68 ) ;
#49 = EDGE_CURVE ( 'NONE', #48, #48, #140, .T. ) ;
#50 = CYLINDRICAL_SURFACE ( 'NONE', #121, 3.075000000000025047 ) ;
#51 = APPLICATION_PROTOCOL_DEFINITION ( 'international standard', 'config_control_design', 1994, #80 ) ;
#52 = CC_DESIGN_PERSON_AND_ORGANIZATION_ASSIGNMENT ( #233, #213, ( #166 ) ) ;
#53 = CARTESIAN_POINT ( 'NONE',  ( 1.396592535537252553E-15, 3.075000000000025047, 0.3999999999999997446 ) ) ;
#54 = PERSON_AND_ORGANIZATION_ROLE ( 'design_supplier' ) ;
#55 = AXIS2_PLACEMENT_3D ( 'NONE', #58, #187, #240 ) ;
#56 = FACE_BOUND ( 'NONE', #46, .T. ) ;
#57 = DIRECTION ( 'NONE',  ( 0.0000000000000000000, 1.000000000000000000, 0.0000000000000000000 ) ) ;
#58 = CARTESIAN_POINT ( 'NONE',  ( 4.189777606611760026E-14, 2.305880665842622904E-32, 12.00000000000000000 ) ) ;
#59 =( GEOMETRIC_REPRESENTATION_CONTEXT ( 3 ) GLOBAL_UNCERTAINTY_ASSIGNED_CONTEXT ( ( #78 ) ) GLOBAL_UNIT_ASSIGNED_CONTEXT ( ( #72, #105, #2 ) ) REPRESENTATION_CONTEXT ( 'NONE', 'WORKASPACE' ) );
#60 = ADVANCED_FACE ( 'NONE', ( #201 ), #119, .F. ) ;
#61 = SECURITY_CLASSIFICATION ( '', '', #219 ) ;
#62 = AXIS2_PLACEMENT_3D ( 'NONE', #9, #37, #97 ) ;
#63 = EDGE_LOOP ( 'NONE', ( #131 ) ) ;
#64 = PERSON ( 'UNSPECIFIED', 'UNSPECIFIED', 'UNSPECIFIED', ('UNSPECIFIED'), ('UNSPECIFIED'), ('UNSPECIFIED') ) ;
#65 = CARTESIAN_POINT ( 'NONE',  ( 4.189777606611760026E-14, 3.075000000000023714, 12.00000000000000000 ) ) ;
#66 = VERTEX_POINT ( 'NONE', #153 ) ;
#67 = ORIENTED_EDGE ( 'NONE', *, *, #101, .F. ) ;
#68 = CARTESIAN_POINT ( 'NONE',  ( 2.793185071074506684E-13, 1.599999999999991207, 80.00000000000000000 ) ) ;
#69 = LOCAL_TIME ( 13, 58, 25.00000000000000000, #139 ) ;
#70 = ORIENTED_EDGE ( 'NONE', *, *, #22, .T. ) ;
#71 = CARTESIAN_POINT ( 'NONE',  ( 2.793185071074506684E-13, 1.199807826129472128E-32, 80.00000000000000000 ) ) ;
#72 =( LENGTH_UNIT ( ) NAMED_UNIT ( * ) SI_UNIT ( .MILLI., .METRE. ) );
#73 = APPROVAL_ROLE ( '' ) ;
#74 = DATE_AND_TIME ( #137, #45 ) ;
#75 = DIRECTION ( 'NONE',  ( -3.491481338843133355E-15, 1.224646799147353207E-16, -1.000000000000000000 ) ) ;
#76 = AXIS2_PLACEMENT_3D ( 'NONE', #21, #134, #144 ) ;
#77 = DIRECTION ( 'NONE',  ( 4.275831445896958607E-31, 1.000000000000000000, 1.224646799147353207E-16 ) ) ;
#78 = UNCERTAINTY_MEASURE_WITH_UNIT (LENGTH_MEASURE( 1.000000000000000082E-05 ), #72, 'distance_accuracy_value', 'NONE');
#79 = PLANE ( 'NONE',  #55 ) ;
#80 = APPLICATION_CONTEXT ( 'configuration controlled 3d designs of mechanical parts and assemblies' ) ;
#81 = CIRCLE ( 'NONE', #76, 2.675000000000023803 ) ;
#82 = COORDINATED_UNIVERSAL_TIME_OFFSET ( 1, 0, .AHEAD. ) ;
#83 = EDGE_LOOP ( 'NONE', ( #227 ) ) ;
#84 = CARTESIAN_POINT ( 'NONE',  ( 4.839875586911431030E-14, -1.697599835302685184E-15, 13.86195461813659513 ) ) ;
#85 = EDGE_LOOP ( 'NONE', ( #127 ) ) ;
#86 = CARTESIAN_POINT ( 'NONE',  ( 4.839875586911431030E-14, 1.999999999999990452, 13.86195461813659513 ) ) ;
#87 = AXIS2_PLACEMENT_3D ( 'NONE', #231, #178, #151 ) ;
#88 = EDGE_LOOP ( 'NONE', ( #129 ) ) ;
#89 = DIRECTION ( 'NONE',  ( 3.491481338843133355E-15, -1.224646799147353207E-16, 1.000000000000000000 ) ) ;
#90 = ADVANCED_FACE ( 'NONE', ( #120, #165 ), #147, .T. ) ;
#91 = APPROVAL ( #167, 'UNSPECIFIED' ) ;
#92 = APPLICATION_PROTOCOL_DEFINITION ( 'international standard', 'config_control_design', 1994, #149 ) ;
#93 = AXIS2_PLACEMENT_3D ( 'NONE', #40, #158, #77 ) ;
#94 = APPROVAL_DATE_TIME ( #15, #150 ) ;
#95 = ADVANCED_FACE ( 'NONE', ( #221, #237 ), #20, .T. ) ;
#96 = FACE_OUTER_BOUND ( 'NONE', #188, .T. ) ;
#97 = DIRECTION ( 'NONE',  ( 4.384230767710745031E-31, 1.000000000000000000, 1.234051253235523433E-16 ) ) ;
#98 = AXIS2_PLACEMENT_3D ( 'NONE', #185, #75, #117 ) ;
#99 = PERSON_AND_ORGANIZATION ( #64, #36 ) ;
#100 = DIRECTION ( 'NONE',  ( 4.275831445896958607E-31, 1.000000000000000000, 1.224646799147353207E-16 ) ) ;
#101 = EDGE_CURVE ( 'NONE', #13, #13, #169, .T. ) ;
#102 = EDGE_LOOP ( 'NONE', ( #208 ) ) ;
#103 = AXIS2_PLACEMENT_3D ( 'NONE', #145, #234, #228 ) ;
#104 = PERSON_AND_ORGANIZATION_ROLE ( 'design_owner' ) ;
#105 =( NAMED_UNIT ( * ) PLANE_ANGLE_UNIT ( ) SI_UNIT ( $, .RADIAN. ) );
#106 = ORIENTED_EDGE ( 'NONE', *, *, #22, .F. ) ;
#107 = CC_DESIGN_PERSON_AND_ORGANIZATION_ASSIGNMENT ( #143, #6, ( #61 ) ) ;
#108 = CIRCLE ( 'NONE', #200, 1.999999999999992228 ) ;
#109 = DIRECTION ( 'NONE',  ( -3.491481338843133355E-15, 1.224646799147353207E-16, -1.000000000000000000 ) ) ;
#110 = LOCAL_TIME ( 13, 58, 25.00000000000000000, #114 ) ;
#111 = EDGE_CURVE ( 'NONE', #211, #211, #81, .T. ) ;
#112 = DIRECTION ( 'NONE',  ( 1.000000000000000000, 0.0000000000000000000, 0.0000000000000000000 ) ) ;
#113 = CC_DESIGN_PERSON_AND_ORGANIZATION_ASSIGNMENT ( #230, #104, ( #12 ) ) ;
#114 = COORDINATED_UNIVERSAL_TIME_OFFSET ( 1, 0, .AHEAD. ) ;
#115 = CALENDAR_DATE ( 2021, 2, 12 ) ;
#116 = APPROVAL_ROLE ( '' ) ;
#117 = DIRECTION ( 'NONE',  ( 4.275831445896958607E-31, 1.000000000000000000, 1.224646799147353207E-16 ) ) ;
#118 = CC_DESIGN_DATE_AND_TIME_ASSIGNMENT ( #198, #44, ( #160 ) ) ;
#119 = PLANE ( 'NONE',  #1 ) ;
#120 = FACE_BOUND ( 'NONE', #63, .T. ) ;
#121 = AXIS2_PLACEMENT_3D ( 'NONE', #210, #42, #100 ) ;
#122 = DIRECTION ( 'NONE',  ( -3.491481338843133355E-15, 1.224646799147353207E-16, -1.000000000000000000 ) ) ;
#123 = ADVANCED_FACE ( 'NONE', ( #4, #191 ), #50, .T. ) ;
#124 = MANIFOLD_SOLID_BREP ( 'Corps-Déplacer/Copier1[1]', #133 ) ;
#125 = CIRCLE ( 'NONE', #242, 3.075000000000025047 ) ;
#126 = PERSON_AND_ORGANIZATION ( #64, #36 ) ;
#127 = ORIENTED_EDGE ( 'NONE', *, *, #217, .T. ) ;
#128 = CLOSED_SHELL ( 'NONE', ( #123, #157, #26, #31 ) ) ;
#129 = ORIENTED_EDGE ( 'NONE', *, *, #8, .F. ) ;
#130 = PRODUCT_RELATED_PRODUCT_CATEGORY ( 'detail', '', ( #12 ) ) ;
#131 = ORIENTED_EDGE ( 'NONE', *, *, #229, .T. ) ;
#132 = EDGE_LOOP ( 'NONE', ( #11 ) ) ;
#133 = CLOSED_SHELL ( 'NONE', ( #214, #90, #152, #95, #60 ) ) ;
#134 = DIRECTION ( 'NONE',  ( -3.491481338843133355E-15, 1.224646799147353207E-16, -1.000000000000000000 ) ) ;
#135 = DIRECTION ( 'NONE',  ( 0.0000000000000000000, 1.000000000000000000, 0.0000000000000000000 ) ) ;
#136 = DIRECTION ( 'NONE',  ( 0.0000000000000000000, 1.000000000000000000, 0.0000000000000000000 ) ) ;
#137 = CALENDAR_DATE ( 2021, 2, 12 ) ;
#138 = VERTEX_POINT ( 'NONE', #86 ) ;
#139 = COORDINATED_UNIVERSAL_TIME_OFFSET ( 1, 0, .AHEAD. ) ;
#140 = CIRCLE ( 'NONE', #103, 1.600000000000000977 ) ;
#141 = COORDINATED_UNIVERSAL_TIME_OFFSET ( 1, 0, .AHEAD. ) ;
#142 = CARTESIAN_POINT ( 'NONE',  ( 4.189777606611760026E-14, -1.469576158976823947E-15, 12.00000000000000000 ) ) ;
#143 = PERSON_AND_ORGANIZATION ( #64, #36 ) ;
#144 = DIRECTION ( 'NONE',  ( 4.275831445896958607E-31, 1.000000000000000000, 1.224646799147353207E-16 ) ) ;
#145 = CARTESIAN_POINT ( 'NONE',  ( 2.793185071074506684E-13, -9.797174393178826052E-15, 80.00000000000000000 ) ) ;
#146 = CC_DESIGN_PERSON_AND_ORGANIZATION_ASSIGNMENT ( #99, #54, ( #166 ) ) ;
#147 = CONICAL_SURFACE ( 'NONE', #175, 3.075000000000025047, 0.5235987755983001479 ) ;
#148 = CC_DESIGN_APPROVAL ( #150, ( #160 ) ) ;
#149 = APPLICATION_CONTEXT ( 'configuration controlled 3d designs of mechanical parts and assemblies' ) ;
#150 = APPROVAL ( #33, 'UNSPECIFIED' ) ;
#151 = DIRECTION ( 'NONE',  ( -4.275831445896958607E-31, -1.000000000000000000, -1.224646799147353207E-16 ) ) ;
#152 = ADVANCED_FACE ( 'NONE', ( #18, #96 ), #220, .T. ) ;
#153 = CARTESIAN_POINT ( 'NONE',  ( 4.189777606611760026E-14, 3.075000000000023714, 12.00000000000000000 ) ) ;
#154 = ORIENTED_EDGE ( 'NONE', *, *, #229, .F. ) ;
#155 = AXIS2_PLACEMENT_3D ( 'NONE', #215, #206, #112 ) ;
#156 = EDGE_LOOP ( 'NONE', ( #209 ) ) ;
#157 = ADVANCED_FACE ( 'NONE', ( #7 ), #79, .T. ) ;
#158 = DIRECTION ( 'NONE',  ( -3.491481338843133355E-15, 1.224646799147353207E-16, -1.000000000000000000 ) ) ;
#159 = CARTESIAN_POINT ( 'NONE',  ( 2.779219145719134403E-13, 1.999999999999991340, 79.60000000000000853 ) ) ;
#160 = PRODUCT_DEFINITION ( 'UNKNOWN', '', #166, #23 ) ;
#161 = PLANE ( 'NONE',  #87 ) ;
#162 = DIRECTION ( 'NONE',  ( 0.0000000000000000000, 1.000000000000000000, 0.0000000000000000000 ) ) ;
#163 = AXIS2_PLACEMENT_3D ( 'NONE', #197, #38, #162 ) ;
#164 = APPROVAL_PERSON_ORGANIZATION ( #39, #91, #236 ) ;
#165 = FACE_OUTER_BOUND ( 'NONE', #224, .T. ) ;
#166 = PRODUCT_DEFINITION_FORMATION_WITH_SPECIFIED_SOURCE ( 'ANY', '', #12, .NOT_KNOWN. ) ;
#167 = APPROVAL_STATUS ( 'not_yet_approved' ) ;
#168 = FACE_OUTER_BOUND ( 'NONE', #173, .T. ) ;
#169 = CIRCLE ( 'NONE', #193, 2.000000000000000888 ) ;
#170 = APPROVAL ( #190, 'UNSPECIFIED' ) ;
#171 = CIRCLE ( 'NONE', #43, 3.075000000000025047 ) ;
#172 = CARTESIAN_POINT ( 'NONE',  ( 0.0000000000000000000, 2.675000000000023803, 0.0000000000000000000 ) ) ;
#173 = EDGE_LOOP ( 'NONE', ( #205 ) ) ;
#174 = FACE_OUTER_BOUND ( 'NONE', #207, .T. ) ;
#175 = AXIS2_PLACEMENT_3D ( 'NONE', #232, #177, #57 ) ;
#176 = CC_DESIGN_APPROVAL ( #170, ( #166 ) ) ;
#177 = DIRECTION ( 'NONE',  ( -3.491481338843133355E-15, 1.224646799147353207E-16, -1.000000000000000000 ) ) ;
#178 = DIRECTION ( 'NONE',  ( 3.491481338843133355E-15, -1.224646799147353207E-16, 1.000000000000000000 ) ) ;
#179 = PERSON_AND_ORGANIZATION ( #64, #36 ) ;
#180 = APPROVAL_DATE_TIME ( #16, #91 ) ;
#181 = DIRECTION ( 'NONE',  ( 4.275831445896958607E-31, 1.000000000000000000, 1.224646799147353207E-16 ) ) ;
#182 = APPROVAL_DATE_TIME ( #74, #170 ) ;
#183 = PLANE ( 'NONE',  #93 ) ;
#184 = AXIS2_PLACEMENT_3D ( 'NONE', #218, #89, #14 ) ;
#185 = CARTESIAN_POINT ( 'NONE',  ( 0.0000000000000000000, 0.0000000000000000000, 0.0000000000000000000 ) ) ;
#186 = CIRCLE ( 'NONE', #62, 3.075000000000025047 ) ;
#187 = DIRECTION ( 'NONE',  ( 3.491481338843133355E-15, -1.224646799147353207E-16, 1.000000000000000000 ) ) ;
#188 = EDGE_LOOP ( 'NONE', ( #25 ) ) ;
#189 = VERTEX_POINT ( 'NONE', #53 ) ;
#190 = APPROVAL_STATUS ( 'not_yet_approved' ) ;
#191 = FACE_OUTER_BOUND ( 'NONE', #88, .T. ) ;
#192 = CALENDAR_DATE ( 2021, 2, 12 ) ;
#193 = AXIS2_PLACEMENT_3D ( 'NONE', #243, #122, #19 ) ;
#194 = PERSON_AND_ORGANIZATION_ROLE ( 'creator' ) ;
#195 = COORDINATED_UNIVERSAL_TIME_OFFSET ( 1, 0, .AHEAD. ) ;
#196 = DIRECTION ( 'NONE',  ( -3.491481338843133355E-15, 1.224646799147353207E-16, -1.000000000000000000 ) ) ;
#197 = CARTESIAN_POINT ( 'NONE',  ( 2.793185071074506684E-13, -9.797174393178826052E-15, 80.00000000000000000 ) ) ;
#198 = DATE_AND_TIME ( #222, #204 ) ;
#199 = FACE_OUTER_BOUND ( 'NONE', #132, .T. ) ;
#200 = AXIS2_PLACEMENT_3D ( 'NONE', #84, #241, #135 ) ;
#201 = FACE_OUTER_BOUND ( 'NONE', #156, .T. ) ;
#202 = LOCAL_TIME ( 13, 58, 25.00000000000000000, #141 ) ;
#203 = ADVANCED_BREP_SHAPE_REPRESENTATION ( '321841', ( #124, #35, #155 ), #59 ) ;
#204 = LOCAL_TIME ( 13, 58, 25.00000000000000000, #82 ) ;
#205 = ORIENTED_EDGE ( 'NONE', *, *, #8, .T. ) ;
#206 = DIRECTION ( 'NONE',  ( 0.0000000000000000000, 0.0000000000000000000, 1.000000000000000000 ) ) ;
#207 = EDGE_LOOP ( 'NONE', ( #70 ) ) ;
#208 = ORIENTED_EDGE ( 'NONE', *, *, #49, .T. ) ;
#209 = ORIENTED_EDGE ( 'NONE', *, *, #49, .F. ) ;
#210 = CARTESIAN_POINT ( 'NONE',  ( 0.0000000000000000000, 0.0000000000000000000, 0.0000000000000000000 ) ) ;
#211 = VERTEX_POINT ( 'NONE', #172 ) ;
#212 = VERTEX_POINT ( 'NONE', #65 ) ;
#213 = PERSON_AND_ORGANIZATION_ROLE ( 'creator' ) ;
#214 = ADVANCED_FACE ( 'NONE', ( #174 ), #161, .F. ) ;
#215 = CARTESIAN_POINT ( 'NONE',  ( 0.0000000000000000000, 0.0000000000000000000, 0.0000000000000000000 ) ) ;
#216 = CALENDAR_DATE ( 2021, 2, 12 ) ;
#217 = EDGE_CURVE ( 'NONE', #66, #66, #171, .T. ) ;
#218 = CARTESIAN_POINT ( 'NONE',  ( -1.143784911777446574E-30, 4.011857418620504954E-32, -3.275930187719198937E-16 ) ) ;
#219 = SECURITY_CLASSIFICATION_LEVEL ( 'unclassified' ) ;
#220 = CYLINDRICAL_SURFACE ( 'NONE', #98, 1.999999999999996669 ) ;
#221 = FACE_OUTER_BOUND ( 'NONE', #30, .T. ) ;
#222 = CALENDAR_DATE ( 2021, 2, 12 ) ;
#223 = ORIENTED_EDGE ( 'NONE', *, *, #111, .F. ) ;
#224 = EDGE_LOOP ( 'NONE', ( #106 ) ) ;
#225 = APPROVAL_PERSON_ORGANIZATION ( #126, #150, #116 ) ;
#226 = EDGE_LOOP ( 'NONE', ( #154 ) ) ;
#227 = ORIENTED_EDGE ( 'NONE', *, *, #217, .F. ) ;
#228 = DIRECTION ( 'NONE',  ( 0.0000000000000000000, 1.000000000000000000, 0.0000000000000000000 ) ) ;
#229 = EDGE_CURVE ( 'NONE', #138, #138, #108, .T. ) ;
#230 = PERSON_AND_ORGANIZATION ( #64, #36 ) ;
#231 = CARTESIAN_POINT ( 'NONE',  ( 4.189777606611760026E-14, 2.305880665842622904E-32, 12.00000000000000000 ) ) ;
#232 = CARTESIAN_POINT ( 'NONE',  ( 4.189777606611760026E-14, -1.469576158976823947E-15, 12.00000000000000000 ) ) ;
#233 = PERSON_AND_ORGANIZATION ( #64, #36 ) ;
#234 = DIRECTION ( 'NONE',  ( -3.491481338843133355E-15, 1.224646799147353207E-16, -1.000000000000000000 ) ) ;
#235 = APPROVAL_PERSON_ORGANIZATION ( #47, #170, #73 ) ;
#236 = APPROVAL_ROLE ( '' ) ;
#237 = FACE_BOUND ( 'NONE', #102, .T. ) ;
#238 = CC_DESIGN_DATE_AND_TIME_ASSIGNMENT ( #17, #34, ( #61 ) ) ;
#239 = CC_DESIGN_SECURITY_CLASSIFICATION ( #61, ( #166 ) ) ;
#240 = DIRECTION ( 'NONE',  ( -4.275831445896958607E-31, -1.000000000000000000, -1.224646799147353207E-16 ) ) ;
#241 = DIRECTION ( 'NONE',  ( -3.491481338843133355E-15, 1.224646799147353207E-16, -1.000000000000000000 ) ) ;
#242 = AXIS2_PLACEMENT_3D ( 'NONE', #142, #109, #5 ) ;
#243 = CARTESIAN_POINT ( 'NONE',  ( 2.779219145719134403E-13, -9.748188521212932624E-15, 79.60000000000000853 ) ) ;
ENDSEC;
END-ISO-10303-21;
