ISO-10303-21;
HEADER;
FILE_DESCRIPTION (( 'STEP AP203' ),
    '1' );
FILE_NAME ('321836.step',
    '2021-12-02T12:58:22',
    ( '' ),
    ( '' ),
    'SwSTEP 2.0',
    'SolidWorks 2019',
    '' );
FILE_SCHEMA (( 'CONFIG_CONTROL_DESIGN' ));
ENDSEC;

DATA;
#1 = EDGE_LOOP ( 'NONE', ( #23 ) ) ;
#2 = DIRECTION ( 'NONE',  ( 3.491481338843133355E-15, -1.224646799147353207E-16, 1.000000000000000000 ) ) ;
#3 = AXIS2_PLACEMENT_3D ( 'NONE', #128, #33, #97 ) ;
#4 = DIRECTION ( 'NONE',  ( -3.491481338843133355E-15, 1.224646799147353207E-16, -1.000000000000000000 ) ) ;
#5 = DIRECTION ( 'NONE',  ( -3.491481338843133355E-15, 1.224646799147353207E-16, -1.000000000000000000 ) ) ;
#6 = CARTESIAN_POINT ( 'NONE',  ( 4.189777606611760026E-14, 2.287133668559350094E-32, 12.00000000000000000 ) ) ;
#7 = AXIS2_PLACEMENT_3D ( 'NONE', #98, #102, #114 ) ;
#8 = CARTESIAN_POINT ( 'NONE',  ( 4.189777606611760026E-14, -1.469576158976823947E-15, 12.00000000000000000 ) ) ;
#9 = COORDINATED_UNIVERSAL_TIME_OFFSET ( 1, 0, .AHEAD. ) ;
#10 = PRODUCT_DEFINITION ( 'UNKNOWN', '', #176, #153 ) ;
#11 = ADVANCED_FACE ( 'NONE', ( #42, #110 ), #18, .T. ) ;
#12 = CARTESIAN_POINT ( 'NONE',  ( 4.189777606611760026E-14, -1.469576158976823947E-15, 12.00000000000000000 ) ) ;
#13 = CC_DESIGN_APPROVAL ( #177, ( #64 ) ) ;
#14 = PERSON_AND_ORGANIZATION ( #142, #156 ) ;
#15 = PRODUCT_DEFINITION_SHAPE ( 'NONE', 'NONE',  #10 ) ;
#16 = DIRECTION ( 'NONE',  ( 0.0000000000000000000, 1.000000000000000000, 0.0000000000000000000 ) ) ;
#17 = CC_DESIGN_PERSON_AND_ORGANIZATION_ASSIGNMENT ( #202, #223, ( #64 ) ) ;
#18 = CONICAL_SURFACE ( 'NONE', #135, 2.650000000000023892, 0.7853981633974508325 ) ;
#19 = MANIFOLD_SOLID_BREP ( 'Corps-Déplacer/Copier1[1]', #85 ) ;
#20 = PERSON_AND_ORGANIZATION_ROLE ( 'creator' ) ;
#21 = EDGE_LOOP ( 'NONE', ( #59 ) ) ;
#22 = AXIS2_PLACEMENT_3D ( 'NONE', #234, #95, #208 ) ;
#23 = ORIENTED_EDGE ( 'NONE', *, *, #62, .F. ) ;
#24 = MANIFOLD_SOLID_BREP ( 'Corps-Déplacer/Copier1[2]', #191 ) ;
#25 = ORIENTED_EDGE ( 'NONE', *, *, #179, .T. ) ;
#26 = CARTESIAN_POINT ( 'NONE',  ( 1.396592535537250384E-15, -4.898587196589401982E-17, 0.3999999999999991340 ) ) ;
#27 = CONICAL_SURFACE ( 'NONE', #221, 3.050000000000025135, 0.5235987755983003700 ) ;
#28 = APPROVAL_PERSON_ORGANIZATION ( #14, #227, #120 ) ;
#29 = FACE_BOUND ( 'NONE', #161, .T. ) ;
#30 = DIRECTION ( 'NONE',  ( 4.275831445896958607E-31, 1.000000000000000000, 1.224646799147353207E-16 ) ) ;
#31 = FACE_OUTER_BOUND ( 'NONE', #186, .T. ) ;
#32 = AXIS2_PLACEMENT_3D ( 'NONE', #231, #66, #48 ) ;
#33 = DIRECTION ( 'NONE',  ( -3.491481338843133355E-15, 1.224646799147353207E-16, -1.000000000000000000 ) ) ;
#34 = CC_DESIGN_PERSON_AND_ORGANIZATION_ASSIGNMENT ( #203, #20, ( #176 ) ) ;
#35 = CALENDAR_DATE ( 2021, 2, 12 ) ;
#36 = COORDINATED_UNIVERSAL_TIME_OFFSET ( 1, 0, .AHEAD. ) ;
#37 = VERTEX_POINT ( 'NONE', #220 ) ;
#38 = APPLICATION_PROTOCOL_DEFINITION ( 'international standard', 'config_control_design', 1994, #212 ) ;
#39 = DATE_AND_TIME ( #162, #183 ) ;
#40 = EDGE_LOOP ( 'NONE', ( #185 ) ) ;
#41 = SHAPE_DEFINITION_REPRESENTATION ( #15, #96 ) ;
#42 = FACE_OUTER_BOUND ( 'NONE', #229, .T. ) ;
#43 = EDGE_LOOP ( 'NONE', ( #76 ) ) ;
#44 = APPROVAL_STATUS ( 'not_yet_approved' ) ;
#45 = CC_DESIGN_PERSON_AND_ORGANIZATION_ASSIGNMENT ( #121, #157, ( #207 ) ) ;
#46 = ORIENTED_EDGE ( 'NONE', *, *, #209, .F. ) ;
#47 = DIRECTION ( 'NONE',  ( 4.275831445896958607E-31, 1.000000000000000000, 1.224646799147353207E-16 ) ) ;
#48 = DIRECTION ( 'NONE',  ( 0.0000000000000000000, 1.000000000000000000, 0.0000000000000000000 ) ) ;
#49 = ADVANCED_FACE ( 'NONE', ( #29, #148 ), #27, .T. ) ;
#50 = DIRECTION ( 'NONE',  ( 4.275831445896958607E-31, 1.000000000000000000, 1.224646799147353207E-16 ) ) ;
#51 = FACE_OUTER_BOUND ( 'NONE', #204, .T. ) ;
#52 = APPROVAL ( #136, 'UNSPECIFIED' ) ;
#53 = DIRECTION ( 'NONE',  ( -3.491481338843133355E-15, 1.224646799147353207E-16, -1.000000000000000000 ) ) ;
#54 = AXIS2_PLACEMENT_3D ( 'NONE', #230, #232, #210 ) ;
#55 = CARTESIAN_POINT ( 'NONE',  ( 2.793185071074506684E-13, 1.599999999999991207, 80.00000000000000000 ) ) ;
#56 = APPROVAL_STATUS ( 'not_yet_approved' ) ;
#57 = CARTESIAN_POINT ( 'NONE',  ( 2.779219145719134403E-13, 1.999999999999991340, 79.60000000000000853 ) ) ;
#58 =( NAMED_UNIT ( * ) PLANE_ANGLE_UNIT ( ) SI_UNIT ( $, .RADIAN. ) );
#59 = ORIENTED_EDGE ( 'NONE', *, *, #228, .T. ) ;
#60 = ADVANCED_FACE ( 'NONE', ( #69, #65 ), #147, .T. ) ;
#61 = APPLICATION_CONTEXT ( 'configuration controlled 3d designs of mechanical parts and assemblies' ) ;
#62 = EDGE_CURVE ( 'NONE', #238, #238, #233, .T. ) ;
#63 = ORIENTED_EDGE ( 'NONE', *, *, #184, .T. ) ;
#64 = SECURITY_CLASSIFICATION ( '', '', #200 ) ;
#65 = FACE_BOUND ( 'NONE', #201, .T. ) ;
#66 = DIRECTION ( 'NONE',  ( -3.491481338843133355E-15, 1.224646799147353207E-16, -1.000000000000000000 ) ) ;
#67 = CARTESIAN_POINT ( 'NONE',  ( 4.189777606611760026E-14, -1.469576158976823947E-15, 12.00000000000000000 ) ) ;
#68 = UNCERTAINTY_MEASURE_WITH_UNIT (LENGTH_MEASURE( 1.000000000000000082E-05 ), #195, 'distance_accuracy_value', 'NONE');
#69 = FACE_OUTER_BOUND ( 'NONE', #1, .T. ) ;
#70 = FACE_OUTER_BOUND ( 'NONE', #113, .T. ) ;
#71 = CC_DESIGN_DATE_AND_TIME_ASSIGNMENT ( #106, #218, ( #10 ) ) ;
#72 = APPROVAL_PERSON_ORGANIZATION ( #173, #52, #133 ) ;
#73 = VERTEX_POINT ( 'NONE', #107 ) ;
#74 = APPROVAL_DATE_TIME ( #90, #227 ) ;
#75 = MECHANICAL_CONTEXT ( 'NONE', #61, 'mechanical' ) ;
#76 = ORIENTED_EDGE ( 'NONE', *, *, #184, .F. ) ;
#77 = ORIENTED_EDGE ( 'NONE', *, *, #112, .F. ) ;
#78 =( GEOMETRIC_REPRESENTATION_CONTEXT ( 3 ) GLOBAL_UNCERTAINTY_ASSIGNED_CONTEXT ( ( #68 ) ) GLOBAL_UNIT_ASSIGNED_CONTEXT ( ( #195, #58, #158 ) ) REPRESENTATION_CONTEXT ( 'NONE', 'WORKASPACE' ) );
#79 = DIRECTION ( 'NONE',  ( -4.275831445896958607E-31, -1.000000000000000000, -1.224646799147353207E-16 ) ) ;
#80 = AXIS2_PLACEMENT_3D ( 'NONE', #26, #189, #167 ) ;
#81 = PRODUCT_RELATED_PRODUCT_CATEGORY ( 'detail', '', ( #207 ) ) ;
#82 = FACE_OUTER_BOUND ( 'NONE', #198, .T. ) ;
#83 = FACE_OUTER_BOUND ( 'NONE', #40, .T. ) ;
#84 = FACE_OUTER_BOUND ( 'NONE', #166, .T. ) ;
#85 = CLOSED_SHELL ( 'NONE', ( #94, #49, #108, #60, #214 ) ) ;
#86 = FACE_OUTER_BOUND ( 'NONE', #43, .T. ) ;
#87 = VERTEX_POINT ( 'NONE', #138 ) ;
#88 = CARTESIAN_POINT ( 'NONE',  ( 0.0000000000000000000, 0.0000000000000000000, 0.0000000000000000000 ) ) ;
#89 = ADVANCED_FACE ( 'NONE', ( #83, #51 ), #151, .T. ) ;
#90 = DATE_AND_TIME ( #239, #91 ) ;
#91 = LOCAL_TIME ( 13, 58, 22.00000000000000000, #193 ) ;
#92 = PERSON_AND_ORGANIZATION ( #142, #156 ) ;
#93 = ORIENTED_EDGE ( 'NONE', *, *, #179, .F. ) ;
#94 = ADVANCED_FACE ( 'NONE', ( #188 ), #117, .F. ) ;
#95 = DIRECTION ( 'NONE',  ( 3.491481338843133355E-15, -1.224646799147353207E-16, 1.000000000000000000 ) ) ;
#96 = ADVANCED_BREP_SHAPE_REPRESENTATION ( '321836', ( #19, #24, #109 ), #78 ) ;
#97 = DIRECTION ( 'NONE',  ( 0.0000000000000000000, 1.000000000000000000, 0.0000000000000000000 ) ) ;
#98 = CARTESIAN_POINT ( 'NONE',  ( 2.793185071074506684E-13, -9.797174393178826052E-15, 80.00000000000000000 ) ) ;
#99 = PLANE ( 'NONE',  #126 ) ;
#100 = CC_DESIGN_PERSON_AND_ORGANIZATION_ASSIGNMENT ( #92, #124, ( #176 ) ) ;
#101 = CIRCLE ( 'NONE', #80, 3.050000000000025135 ) ;
#102 = DIRECTION ( 'NONE',  ( -3.491481338843133355E-15, 1.224646799147353207E-16, -1.000000000000000000 ) ) ;
#103 = DATE_AND_TIME ( #35, #206 ) ;
#104 = CIRCLE ( 'NONE', #205, 2.650000000000023892 ) ;
#105 = LOCAL_TIME ( 13, 58, 22.00000000000000000, #111 ) ;
#106 = DATE_AND_TIME ( #237, #140 ) ;
#107 = CARTESIAN_POINT ( 'NONE',  ( 0.0000000000000000000, 2.650000000000023892, 0.0000000000000000000 ) ) ;
#108 = ADVANCED_FACE ( 'NONE', ( #82, #70 ), #190, .T. ) ;
#109 = AXIS2_PLACEMENT_3D ( 'NONE', #88, #137, #236 ) ;
#110 = FACE_BOUND ( 'NONE', #125, .T. ) ;
#111 = COORDINATED_UNIVERSAL_TIME_OFFSET ( 1, 0, .AHEAD. ) ;
#112 = EDGE_CURVE ( 'NONE', #178, #178, #122, .T. ) ;
#113 = EDGE_LOOP ( 'NONE', ( #224 ) ) ;
#114 = DIRECTION ( 'NONE',  ( 0.0000000000000000000, 1.000000000000000000, 0.0000000000000000000 ) ) ;
#115 = PLANE ( 'NONE',  #159 ) ;
#116 = DIRECTION ( 'NONE',  ( -3.491481338843133355E-15, 1.224646799147353207E-16, -1.000000000000000000 ) ) ;
#117 = PLANE ( 'NONE',  #134 ) ;
#118 = DIRECTION ( 'NONE',  ( 0.0000000000000000000, 1.000000000000000000, 0.0000000000000000000 ) ) ;
#119 = VERTEX_POINT ( 'NONE', #192 ) ;
#120 = APPROVAL_ROLE ( '' ) ;
#121 = PERSON_AND_ORGANIZATION ( #142, #156 ) ;
#122 = CIRCLE ( 'NONE', #172, 3.050000000000025135 ) ;
#123 = DIRECTION ( 'NONE',  ( -3.491481338843133355E-15, 1.224646799147353207E-16, -1.000000000000000000 ) ) ;
#124 = PERSON_AND_ORGANIZATION_ROLE ( 'design_supplier' ) ;
#125 = EDGE_LOOP ( 'NONE', ( #182 ) ) ;
#126 = AXIS2_PLACEMENT_3D ( 'NONE', #171, #149, #50 ) ;
#127 = CARTESIAN_POINT ( 'NONE',  ( 0.0000000000000000000, 0.0000000000000000000, 0.0000000000000000000 ) ) ;
#128 = CARTESIAN_POINT ( 'NONE',  ( 2.779219145719134403E-13, -9.748188521212932624E-15, 79.60000000000000853 ) ) ;
#129 = CARTESIAN_POINT ( 'NONE',  ( 2.793185071074506684E-13, -9.797174393178826052E-15, 80.00000000000000000 ) ) ;
#130 = CIRCLE ( 'NONE', #216, 3.050000000000025135 ) ;
#131 = CARTESIAN_POINT ( 'NONE',  ( -1.133095333162704216E-30, 3.974363424053958788E-32, -3.245314017740515544E-16 ) ) ;
#132 = DIRECTION ( 'NONE',  ( -4.275831445896958607E-31, -1.000000000000000000, -1.224646799147353207E-16 ) ) ;
#133 = APPROVAL_ROLE ( '' ) ;
#134 = AXIS2_PLACEMENT_3D ( 'NONE', #6, #2, #79 ) ;
#135 = AXIS2_PLACEMENT_3D ( 'NONE', #215, #170, #132 ) ;
#136 = APPROVAL_STATUS ( 'not_yet_approved' ) ;
#137 = DIRECTION ( 'NONE',  ( 0.0000000000000000000, 0.0000000000000000000, 1.000000000000000000 ) ) ;
#138 = CARTESIAN_POINT ( 'NONE',  ( 4.189777606611760026E-14, 3.050000000000024247, 12.00000000000000000 ) ) ;
#139 = ADVANCED_FACE ( 'NONE', ( #84 ), #235, .T. ) ;
#140 = LOCAL_TIME ( 13, 58, 22.00000000000000000, #36 ) ;
#141 = DATE_AND_TIME ( #164, #105 ) ;
#142 = PERSON ( 'UNSPECIFIED', 'UNSPECIFIED', 'UNSPECIFIED', ('UNSPECIFIED'), ('UNSPECIFIED'), ('UNSPECIFIED') ) ;
#143 = EDGE_CURVE ( 'NONE', #73, #73, #104, .T. ) ;
#144 = PERSON_AND_ORGANIZATION ( #142, #156 ) ;
#145 = APPROVAL_DATE_TIME ( #39, #177 ) ;
#146 = ORIENTED_EDGE ( 'NONE', *, *, #143, .T. ) ;
#147 = CONICAL_SURFACE ( 'NONE', #7, 1.600000000000000977, 0.7853981633974512766 ) ;
#148 = FACE_OUTER_BOUND ( 'NONE', #242, .T. ) ;
#149 = DIRECTION ( 'NONE',  ( -3.491481338843133355E-15, 1.224646799147353207E-16, -1.000000000000000000 ) ) ;
#150 = DIRECTION ( 'NONE',  ( 4.275831445896958607E-31, 1.000000000000000000, 1.224646799147353207E-16 ) ) ;
#151 = CYLINDRICAL_SURFACE ( 'NONE', #54, 3.050000000000025135 ) ;
#152 = CARTESIAN_POINT ( 'NONE',  ( 2.793185071074506684E-13, 1.199807826129472128E-32, 80.00000000000000000 ) ) ;
#153 = DESIGN_CONTEXT ( 'detailed design', #212, 'design' ) ;
#154 = CARTESIAN_POINT ( 'NONE',  ( 4.189777606611760026E-14, 3.050000000000024247, 12.00000000000000000 ) ) ;
#155 = PERSON_AND_ORGANIZATION ( #142, #156 ) ;
#156 = ORGANIZATION ( 'UNSPECIFIED', 'UNSPECIFIED', '' ) ;
#157 = PERSON_AND_ORGANIZATION_ROLE ( 'design_owner' ) ;
#158 =( NAMED_UNIT ( * ) SI_UNIT ( $, .STERADIAN. ) SOLID_ANGLE_UNIT ( ) );
#159 = AXIS2_PLACEMENT_3D ( 'NONE', #152, #116, #30 ) ;
#160 = CC_DESIGN_APPROVAL ( #227, ( #176 ) ) ;
#161 = EDGE_LOOP ( 'NONE', ( #226 ) ) ;
#162 = CALENDAR_DATE ( 2021, 2, 12 ) ;
#163 = AXIS2_PLACEMENT_3D ( 'NONE', #127, #169, #150 ) ;
#164 = CALENDAR_DATE ( 2021, 2, 12 ) ;
#165 = ORIENTED_EDGE ( 'NONE', *, *, #228, .F. ) ;
#166 = EDGE_LOOP ( 'NONE', ( #77 ) ) ;
#167 = DIRECTION ( 'NONE',  ( 4.420167085478865935E-31, 1.000000000000000000, 1.244166427442371998E-16 ) ) ;
#168 = CC_DESIGN_DATE_AND_TIME_ASSIGNMENT ( #141, #180, ( #64 ) ) ;
#169 = DIRECTION ( 'NONE',  ( -3.491481338843133355E-15, 1.224646799147353207E-16, -1.000000000000000000 ) ) ;
#170 = DIRECTION ( 'NONE',  ( 3.491481338843133355E-15, -1.224646799147353207E-16, 1.000000000000000000 ) ) ;
#171 = CARTESIAN_POINT ( 'NONE',  ( -5.665476665813521082E-31, 1.987181712026979394E-32, -1.622657008870257772E-16 ) ) ;
#172 = AXIS2_PLACEMENT_3D ( 'NONE', #8, #5, #118 ) ;
#173 = PERSON_AND_ORGANIZATION ( #142, #156 ) ;
#174 = APPROVAL_DATE_TIME ( #103, #52 ) ;
#175 = PERSON_AND_ORGANIZATION_ROLE ( 'creator' ) ;
#176 = PRODUCT_DEFINITION_FORMATION_WITH_SPECIFIED_SOURCE ( 'ANY', '', #207, .NOT_KNOWN. ) ;
#177 = APPROVAL ( #44, 'UNSPECIFIED' ) ;
#178 = VERTEX_POINT ( 'NONE', #154 ) ;
#179 = EDGE_CURVE ( 'NONE', #37, #37, #101, .T. ) ;
#180 = DATE_TIME_ROLE ( 'classification_date' ) ;
#181 = APPROVAL_ROLE ( '' ) ;
#182 = ORIENTED_EDGE ( 'NONE', *, *, #143, .F. ) ;
#183 = LOCAL_TIME ( 13, 58, 22.00000000000000000, #222 ) ;
#184 = EDGE_CURVE ( 'NONE', #197, #197, #225, .T. ) ;
#185 = ORIENTED_EDGE ( 'NONE', *, *, #112, .T. ) ;
#186 = EDGE_LOOP ( 'NONE', ( #146 ) ) ;
#187 = DIRECTION ( 'NONE',  ( 0.0000000000000000000, 1.000000000000000000, 0.0000000000000000000 ) ) ;
#188 = FACE_OUTER_BOUND ( 'NONE', #21, .T. ) ;
#189 = DIRECTION ( 'NONE',  ( -3.491481338843133355E-15, 1.224646799147353207E-16, -1.000000000000000000 ) ) ;
#190 = CYLINDRICAL_SURFACE ( 'NONE', #163, 1.999999999999996669 ) ;
#191 = CLOSED_SHELL ( 'NONE', ( #89, #139, #194, #11 ) ) ;
#192 = CARTESIAN_POINT ( 'NONE',  ( 4.824757029230044139E-14, 1.999999999999990452, 13.81865334794737166 ) ) ;
#193 = COORDINATED_UNIVERSAL_TIME_OFFSET ( 1, 0, .AHEAD. ) ;
#194 = ADVANCED_FACE ( 'NONE', ( #31 ), #99, .T. ) ;
#195 =( LENGTH_UNIT ( ) NAMED_UNIT ( * ) SI_UNIT ( .MILLI., .METRE. ) );
#196 = APPROVAL_PERSON_ORGANIZATION ( #144, #177, #181 ) ;
#197 = VERTEX_POINT ( 'NONE', #55 ) ;
#198 = EDGE_LOOP ( 'NONE', ( #46 ) ) ;
#199 = CC_DESIGN_SECURITY_CLASSIFICATION ( #64, ( #176 ) ) ;
#200 = SECURITY_CLASSIFICATION_LEVEL ( 'unclassified' ) ;
#201 = EDGE_LOOP ( 'NONE', ( #63 ) ) ;
#202 = PERSON_AND_ORGANIZATION ( #142, #156 ) ;
#203 = PERSON_AND_ORGANIZATION ( #142, #156 ) ;
#204 = EDGE_LOOP ( 'NONE', ( #93 ) ) ;
#205 = AXIS2_PLACEMENT_3D ( 'NONE', #131, #213, #47 ) ;
#206 = LOCAL_TIME ( 13, 58, 22.00000000000000000, #9 ) ;
#207 = PRODUCT ( '321836', '321836', '', ( #75 ) ) ;
#208 = DIRECTION ( 'NONE',  ( -4.275831445896958607E-31, -1.000000000000000000, -1.224646799147353207E-16 ) ) ;
#209 = EDGE_CURVE ( 'NONE', #119, #119, #243, .T. ) ;
#210 = DIRECTION ( 'NONE',  ( 4.275831445896958607E-31, 1.000000000000000000, 1.224646799147353207E-16 ) ) ;
#211 = DIRECTION ( 'NONE',  ( 0.0000000000000000000, 1.000000000000000000, 0.0000000000000000000 ) ) ;
#212 = APPLICATION_CONTEXT ( 'configuration controlled 3d designs of mechanical parts and assemblies' ) ;
#213 = DIRECTION ( 'NONE',  ( -3.491481338843133355E-15, 1.224646799147353207E-16, -1.000000000000000000 ) ) ;
#214 = ADVANCED_FACE ( 'NONE', ( #86 ), #115, .F. ) ;
#215 = CARTESIAN_POINT ( 'NONE',  ( -1.133095333162704216E-30, 3.974363424053958788E-32, -3.245314017740515544E-16 ) ) ;
#216 = AXIS2_PLACEMENT_3D ( 'NONE', #12, #123, #16 ) ;
#217 = CC_DESIGN_APPROVAL ( #52, ( #10 ) ) ;
#218 = DATE_TIME_ROLE ( 'creation_date' ) ;
#219 = APPLICATION_PROTOCOL_DEFINITION ( 'international standard', 'config_control_design', 1994, #61 ) ;
#220 = CARTESIAN_POINT ( 'NONE',  ( 1.396592535537251764E-15, 3.050000000000025135, 0.3999999999999995226 ) ) ;
#221 = AXIS2_PLACEMENT_3D ( 'NONE', #67, #53, #187 ) ;
#222 = COORDINATED_UNIVERSAL_TIME_OFFSET ( 1, 0, .AHEAD. ) ;
#223 = PERSON_AND_ORGANIZATION_ROLE ( 'classification_officer' ) ;
#224 = ORIENTED_EDGE ( 'NONE', *, *, #62, .T. ) ;
#225 = CIRCLE ( 'NONE', #240, 1.600000000000000977 ) ;
#226 = ORIENTED_EDGE ( 'NONE', *, *, #209, .T. ) ;
#227 = APPROVAL ( #56, 'UNSPECIFIED' ) ;
#228 = EDGE_CURVE ( 'NONE', #87, #87, #130, .T. ) ;
#229 = EDGE_LOOP ( 'NONE', ( #25 ) ) ;
#230 = CARTESIAN_POINT ( 'NONE',  ( 0.0000000000000000000, 0.0000000000000000000, 0.0000000000000000000 ) ) ;
#231 = CARTESIAN_POINT ( 'NONE',  ( 4.824757029230044139E-14, -1.692296959109060555E-15, 13.81865334794737166 ) ) ;
#232 = DIRECTION ( 'NONE',  ( -3.491481338843133355E-15, 1.224646799147353207E-16, -1.000000000000000000 ) ) ;
#233 = CIRCLE ( 'NONE', #3, 2.000000000000000888 ) ;
#234 = CARTESIAN_POINT ( 'NONE',  ( 4.189777606611760026E-14, 2.287133668559350094E-32, 12.00000000000000000 ) ) ;
#235 = PLANE ( 'NONE',  #22 ) ;
#236 = DIRECTION ( 'NONE',  ( 1.000000000000000000, 0.0000000000000000000, 0.0000000000000000000 ) ) ;
#237 = CALENDAR_DATE ( 2021, 2, 12 ) ;
#238 = VERTEX_POINT ( 'NONE', #57 ) ;
#239 = CALENDAR_DATE ( 2021, 2, 12 ) ;
#240 = AXIS2_PLACEMENT_3D ( 'NONE', #129, #4, #211 ) ;
#241 = CC_DESIGN_PERSON_AND_ORGANIZATION_ASSIGNMENT ( #155, #175, ( #10 ) ) ;
#242 = EDGE_LOOP ( 'NONE', ( #165 ) ) ;
#243 = CIRCLE ( 'NONE', #32, 1.999999999999992228 ) ;
ENDSEC;
END-ISO-10303-21;
