ISO-10303-21;
HEADER;
FILE_DESCRIPTION (( 'STEP AP203' ),
    '1' );
FILE_NAME ('321831.step',
    '2021-12-02T12:58:18',
    ( '' ),
    ( '' ),
    'SwSTEP 2.0',
    'SolidWorks 2019',
    '' );
FILE_SCHEMA (( 'CONFIG_CONTROL_DESIGN' ));
ENDSEC;

DATA;
#1 = CALENDAR_DATE ( 2021, 2, 12 ) ;
#2 = MANIFOLD_SOLID_BREP ( 'Corps-Déplacer/Copier1[1]', #55 ) ;
#3 = MANIFOLD_SOLID_BREP ( 'Corps-Déplacer/Copier1[2]', #162 ) ;
#4 = CC_DESIGN_APPROVAL ( #216, ( #9 ) ) ;
#5 = APPROVAL_DATE_TIME ( #161, #181 ) ;
#6 = COORDINATED_UNIVERSAL_TIME_OFFSET ( 1, 0, .AHEAD. ) ;
#7 = EDGE_LOOP ( 'NONE', ( #126 ) ) ;
#8 = ORIENTED_EDGE ( 'NONE', *, *, #188, .T. ) ;
#9 = PRODUCT_DEFINITION ( 'UNKNOWN', '', #40, #50 ) ;
#10 = EDGE_LOOP ( 'NONE', ( #34 ) ) ;
#11 = AXIS2_PLACEMENT_3D ( 'NONE', #242, #236, #224 ) ;
#12 = APPROVAL_PERSON_ORGANIZATION ( #84, #181, #28 ) ;
#13 = FACE_OUTER_BOUND ( 'NONE', #69, .T. ) ;
#14 = DIRECTION ( 'NONE',  ( -3.491481338843133355E-15, 1.224646799147353207E-16, -1.000000000000000000 ) ) ;
#15 = APPLICATION_PROTOCOL_DEFINITION ( 'international standard', 'config_control_design', 1994, #16 ) ;
#16 = APPLICATION_CONTEXT ( 'configuration controlled 3d designs of mechanical parts and assemblies' ) ;
#17 = DIRECTION ( 'NONE',  ( -3.491481338843133355E-15, 1.224646799147353207E-16, -1.000000000000000000 ) ) ;
#18 = CIRCLE ( 'NONE', #11, 3.025000000000024780 ) ;
#19 = DIRECTION ( 'NONE',  ( -3.491481338843133355E-15, 1.224646799147353207E-16, -1.000000000000000000 ) ) ;
#20 = CARTESIAN_POINT ( 'NONE',  ( 4.189777606611760026E-14, -1.469576158976823947E-15, 12.00000000000000000 ) ) ;
#21 = CC_DESIGN_DATE_AND_TIME_ASSIGNMENT ( #145, #45, ( #78 ) ) ;
#22 = PRODUCT_DEFINITION_SHAPE ( 'NONE', 'NONE',  #9 ) ;
#23 = VERTEX_POINT ( 'NONE', #175 ) ;
#24 = VERTEX_POINT ( 'NONE', #210 ) ;
#25 = APPROVAL_ROLE ( '' ) ;
#26 = DATE_TIME_ROLE ( 'creation_date' ) ;
#27 = PERSON_AND_ORGANIZATION_ROLE ( 'design_supplier' ) ;
#28 = APPROVAL_ROLE ( '' ) ;
#29 = ORIENTED_EDGE ( 'NONE', *, *, #206, .T. ) ;
#30 = ORGANIZATION ( 'UNSPECIFIED', 'UNSPECIFIED', '' ) ;
#31 = ADVANCED_FACE ( 'NONE', ( #53 ), #130, .F. ) ;
#32 = ORIENTED_EDGE ( 'NONE', *, *, #133, .F. ) ;
#33 = EDGE_LOOP ( 'NONE', ( #203 ) ) ;
#34 = ORIENTED_EDGE ( 'NONE', *, *, #206, .F. ) ;
#35 = CONICAL_SURFACE ( 'NONE', #239, 2.625000000000023093, 0.7853981633974504994 ) ;
#36 = DIRECTION ( 'NONE',  ( 0.0000000000000000000, 1.000000000000000000, 0.0000000000000000000 ) ) ;
#37 = CARTESIAN_POINT ( 'NONE',  ( 4.189777606611760026E-14, 3.025000000000023448, 12.00000000000000000 ) ) ;
#38 = DIRECTION ( 'NONE',  ( -4.275831445896958607E-31, -1.000000000000000000, -1.224646799147353207E-16 ) ) ;
#39 = DIRECTION ( 'NONE',  ( 4.275831445896958607E-31, 1.000000000000000000, 1.224646799147353207E-16 ) ) ;
#40 = PRODUCT_DEFINITION_FORMATION_WITH_SPECIFIED_SOURCE ( 'ANY', '', #214, .NOT_KNOWN. ) ;
#41 = CARTESIAN_POINT ( 'NONE',  ( 4.189777606611760026E-14, 2.268386671276076190E-32, 12.00000000000000000 ) ) ;
#42 = CC_DESIGN_PERSON_AND_ORGANIZATION_ASSIGNMENT ( #226, #231, ( #40 ) ) ;
#43 = VERTEX_POINT ( 'NONE', #37 ) ;
#44 = DIRECTION ( 'NONE',  ( -3.491481338843133355E-15, 1.224646799147353207E-16, -1.000000000000000000 ) ) ;
#45 = DATE_TIME_ROLE ( 'classification_date' ) ;
#46 = APPROVAL_PERSON_ORGANIZATION ( #229, #216, #63 ) ;
#47 = APPLICATION_PROTOCOL_DEFINITION ( 'international standard', 'config_control_design', 1994, #171 ) ;
#48 = CARTESIAN_POINT ( 'NONE',  ( 0.0000000000000000000, 0.0000000000000000000, 0.0000000000000000000 ) ) ;
#49 = CIRCLE ( 'NONE', #170, 2.000000000000000888 ) ;
#50 = DESIGN_CONTEXT ( 'detailed design', #171, 'design' ) ;
#51 = ADVANCED_FACE ( 'NONE', ( #110, #75 ), #198, .T. ) ;
#52 = AXIS2_PLACEMENT_3D ( 'NONE', #57, #207, #185 ) ;
#53 = FACE_OUTER_BOUND ( 'NONE', #218, .T. ) ;
#54 = FACE_OUTER_BOUND ( 'NONE', #10, .T. ) ;
#55 = CLOSED_SHELL ( 'NONE', ( #31, #102, #158, #51, #148 ) ) ;
#56 = DIRECTION ( 'NONE',  ( -3.491481338843133355E-15, 1.224646799147353207E-16, -1.000000000000000000 ) ) ;
#57 = CARTESIAN_POINT ( 'NONE',  ( 4.189777606611760026E-14, -1.469576158976823947E-15, 12.00000000000000000 ) ) ;
#58 =( LENGTH_UNIT ( ) NAMED_UNIT ( * ) SI_UNIT ( .MILLI., .METRE. ) );
#59 = ADVANCED_FACE ( 'NONE', ( #93 ), #240, .T. ) ;
#60 = CARTESIAN_POINT ( 'NONE',  ( 2.779219145719134403E-13, -9.748188521212932624E-15, 79.60000000000000853 ) ) ;
#61 = CC_DESIGN_SECURITY_CLASSIFICATION ( #78, ( #40 ) ) ;
#62 = DIRECTION ( 'NONE',  ( 4.275831445896958607E-31, 1.000000000000000000, 1.224646799147353207E-16 ) ) ;
#63 = APPROVAL_ROLE ( '' ) ;
#64 = DATE_AND_TIME ( #228, #160 ) ;
#65 = CC_DESIGN_PERSON_AND_ORGANIZATION_ASSIGNMENT ( #103, #141, ( #78 ) ) ;
#66 = SECURITY_CLASSIFICATION_LEVEL ( 'unclassified' ) ;
#67 = APPROVAL_DATE_TIME ( #64, #216 ) ;
#68 = ORIENTED_EDGE ( 'NONE', *, *, #238, .T. ) ;
#69 = EDGE_LOOP ( 'NONE', ( #108 ) ) ;
#70 = PLANE ( 'NONE',  #143 ) ;
#71 = UNCERTAINTY_MEASURE_WITH_UNIT (LENGTH_MEASURE( 1.000000000000000082E-05 ), #58, 'distance_accuracy_value', 'NONE');
#72 = FACE_BOUND ( 'NONE', #202, .T. ) ;
#73 = ADVANCED_FACE ( 'NONE', ( #13, #72 ), #35, .T. ) ;
#74 = CARTESIAN_POINT ( 'NONE',  ( 2.779219145719134403E-13, 1.999999999999991340, 79.60000000000000853 ) ) ;
#75 = FACE_BOUND ( 'NONE', #150, .T. ) ;
#76 = CARTESIAN_POINT ( 'NONE',  ( -1.122405754547961684E-30, 3.936869429487410979E-32, -3.214697847761830673E-16 ) ) ;
#77 = CARTESIAN_POINT ( 'NONE',  ( 2.793185071074506684E-13, 1.599999999999991207, 80.00000000000000000 ) ) ;
#78 = SECURITY_CLASSIFICATION ( '', '', #66 ) ;
#79 = APPROVAL_DATE_TIME ( #196, #83 ) ;
#80 = PERSON_AND_ORGANIZATION ( #200, #30 ) ;
#81 = AXIS2_PLACEMENT_3D ( 'NONE', #225, #17, #137 ) ;
#82 = DIRECTION ( 'NONE',  ( 1.000000000000000000, 0.0000000000000000000, 0.0000000000000000000 ) ) ;
#83 = APPROVAL ( #101, 'UNSPECIFIED' ) ;
#84 = PERSON_AND_ORGANIZATION ( #200, #30 ) ;
#85 = ORIENTED_EDGE ( 'NONE', *, *, #142, .T. ) ;
#86 = AXIS2_PLACEMENT_3D ( 'NONE', #134, #208, #117 ) ;
#87 = EDGE_LOOP ( 'NONE', ( #147 ) ) ;
#88 = EDGE_LOOP ( 'NONE', ( #85 ) ) ;
#89 = EDGE_LOOP ( 'NONE', ( #232 ) ) ;
#90 = LOCAL_TIME ( 13, 58, 18.00000000000000000, #178 ) ;
#91 = PRODUCT_RELATED_PRODUCT_CATEGORY ( 'detail', '', ( #214 ) ) ;
#92 = DIRECTION ( 'NONE',  ( -3.491481338843133355E-15, 1.224646799147353207E-16, -1.000000000000000000 ) ) ;
#93 = FACE_OUTER_BOUND ( 'NONE', #33, .T. ) ;
#94 = DIRECTION ( 'NONE',  ( 3.491481338843133355E-15, -1.224646799147353207E-16, 1.000000000000000000 ) ) ;
#95 = AXIS2_PLACEMENT_3D ( 'NONE', #205, #14, #219 ) ;
#96 = DIRECTION ( 'NONE',  ( 4.275831445896958607E-31, 1.000000000000000000, 1.224646799147353207E-16 ) ) ;
#97 = FACE_OUTER_BOUND ( 'NONE', #88, .T. ) ;
#98 = CARTESIAN_POINT ( 'NONE',  ( 4.189777606611760026E-14, -1.469576158976823947E-15, 12.00000000000000000 ) ) ;
#99 =( NAMED_UNIT ( * ) SI_UNIT ( $, .STERADIAN. ) SOLID_ANGLE_UNIT ( ) );
#100 = APPROVAL_STATUS ( 'not_yet_approved' ) ;
#101 = APPROVAL_STATUS ( 'not_yet_approved' ) ;
#102 = ADVANCED_FACE ( 'NONE', ( #168, #113 ), #179, .T. ) ;
#103 = PERSON_AND_ORGANIZATION ( #200, #30 ) ;
#104 = CIRCLE ( 'NONE', #138, 3.025000000000024780 ) ;
#105 = PERSON_AND_ORGANIZATION ( #200, #30 ) ;
#106 = PERSON_AND_ORGANIZATION_ROLE ( 'creator' ) ;
#107 = EDGE_LOOP ( 'NONE', ( #163 ) ) ;
#108 = ORIENTED_EDGE ( 'NONE', *, *, #133, .T. ) ;
#109 = ADVANCED_FACE ( 'NONE', ( #140 ), #152, .T. ) ;
#110 = FACE_OUTER_BOUND ( 'NONE', #107, .T. ) ;
#111 = AXIS2_PLACEMENT_3D ( 'NONE', #237, #19, #96 ) ;
#112 = ADVANCED_BREP_SHAPE_REPRESENTATION ( '321831', ( #2, #3, #189 ), #183 ) ;
#113 = FACE_OUTER_BOUND ( 'NONE', #7, .T. ) ;
#114 = DIRECTION ( 'NONE',  ( -4.275831445896958607E-31, -1.000000000000000000, -1.224646799147353207E-16 ) ) ;
#115 = CYLINDRICAL_SURFACE ( 'NONE', #111, 1.999999999999996669 ) ;
#116 = AXIS2_PLACEMENT_3D ( 'NONE', #76, #156, #62 ) ;
#117 = DIRECTION ( 'NONE',  ( 0.0000000000000000000, 1.000000000000000000, 0.0000000000000000000 ) ) ;
#118 = VERTEX_POINT ( 'NONE', #74 ) ;
#119 = CALENDAR_DATE ( 2021, 2, 12 ) ;
#120 = AXIS2_PLACEMENT_3D ( 'NONE', #131, #204, #36 ) ;
#121 = COORDINATED_UNIVERSAL_TIME_OFFSET ( 1, 0, .AHEAD. ) ;
#122 = ADVANCED_FACE ( 'NONE', ( #153, #184 ), #241, .T. ) ;
#123 = APPROVAL_STATUS ( 'not_yet_approved' ) ;
#124 = CC_DESIGN_APPROVAL ( #181, ( #78 ) ) ;
#125 = ORIENTED_EDGE ( 'NONE', *, *, #201, .F. ) ;
#126 = ORIENTED_EDGE ( 'NONE', *, *, #238, .F. ) ;
#127 = AXIS2_PLACEMENT_3D ( 'NONE', #190, #222, #114 ) ;
#128 = ORIENTED_EDGE ( 'NONE', *, *, #188, .F. ) ;
#129 = CC_DESIGN_DATE_AND_TIME_ASSIGNMENT ( #199, #26, ( #9 ) ) ;
#130 = PLANE ( 'NONE',  #230 ) ;
#131 = CARTESIAN_POINT ( 'NONE',  ( 4.809638471548656617E-14, -1.686994082915436123E-15, 13.77535207775814996 ) ) ;
#132 = CIRCLE ( 'NONE', #116, 2.625000000000023093 ) ;
#133 = EDGE_CURVE ( 'NONE', #23, #23, #18, .T. ) ;
#134 = CARTESIAN_POINT ( 'NONE',  ( 2.793185071074506684E-13, -9.797174393178826052E-15, 80.00000000000000000 ) ) ;
#135 = VERTEX_POINT ( 'NONE', #77 ) ;
#136 = DIRECTION ( 'NONE',  ( 0.0000000000000000000, 1.000000000000000000, 0.0000000000000000000 ) ) ;
#137 = DIRECTION ( 'NONE',  ( 4.275831445896958607E-31, 1.000000000000000000, 1.224646799147353207E-16 ) ) ;
#138 = AXIS2_PLACEMENT_3D ( 'NONE', #98, #44, #192 ) ;
#139 = VERTEX_POINT ( 'NONE', #212 ) ;
#140 = FACE_OUTER_BOUND ( 'NONE', #89, .T. ) ;
#141 = PERSON_AND_ORGANIZATION_ROLE ( 'classification_officer' ) ;
#142 = EDGE_CURVE ( 'NONE', #118, #118, #49, .T. ) ;
#143 = AXIS2_PLACEMENT_3D ( 'NONE', #151, #221, #39 ) ;
#144 = COORDINATED_UNIVERSAL_TIME_OFFSET ( 1, 0, .AHEAD. ) ;
#145 = DATE_AND_TIME ( #213, #90 ) ;
#146 = PERSON_AND_ORGANIZATION_ROLE ( 'design_owner' ) ;
#147 = ORIENTED_EDGE ( 'NONE', *, *, #197, .T. ) ;
#148 = ADVANCED_FACE ( 'NONE', ( #167 ), #70, .F. ) ;
#149 = LOCAL_TIME ( 13, 58, 18.00000000000000000, #159 ) ;
#150 = EDGE_LOOP ( 'NONE', ( #8 ) ) ;
#151 = CARTESIAN_POINT ( 'NONE',  ( 2.793185071074506684E-13, 1.199807826129472128E-32, 80.00000000000000000 ) ) ;
#152 = PLANE ( 'NONE',  #81 ) ;
#153 = FACE_OUTER_BOUND ( 'NONE', #87, .T. ) ;
#154 = VERTEX_POINT ( 'NONE', #223 ) ;
#155 = DIRECTION ( 'NONE',  ( -3.491481338843133355E-15, 1.224646799147353207E-16, -1.000000000000000000 ) ) ;
#156 = DIRECTION ( 'NONE',  ( -3.491481338843133355E-15, 1.224646799147353207E-16, -1.000000000000000000 ) ) ;
#157 = LOCAL_TIME ( 13, 58, 18.00000000000000000, #144 ) ;
#158 = ADVANCED_FACE ( 'NONE', ( #54, #97 ), #115, .T. ) ;
#159 = COORDINATED_UNIVERSAL_TIME_OFFSET ( 1, 0, .AHEAD. ) ;
#160 = LOCAL_TIME ( 13, 58, 18.00000000000000000, #121 ) ;
#161 = DATE_AND_TIME ( #119, #217 ) ;
#162 = CLOSED_SHELL ( 'NONE', ( #122, #59, #109, #73 ) ) ;
#163 = ORIENTED_EDGE ( 'NONE', *, *, #142, .F. ) ;
#164 = EDGE_LOOP ( 'NONE', ( #29 ) ) ;
#165 = EDGE_LOOP ( 'NONE', ( #32 ) ) ;
#166 = CC_DESIGN_APPROVAL ( #83, ( #40 ) ) ;
#167 = FACE_OUTER_BOUND ( 'NONE', #235, .T. ) ;
#168 = FACE_BOUND ( 'NONE', #164, .T. ) ;
#169 = DIRECTION ( 'NONE',  ( -4.275831445896959482E-31, -1.000000000000000000, -1.224646799147353207E-16 ) ) ;
#170 = AXIS2_PLACEMENT_3D ( 'NONE', #60, #92, #136 ) ;
#171 = APPLICATION_CONTEXT ( 'configuration controlled 3d designs of mechanical parts and assemblies' ) ;
#172 = CARTESIAN_POINT ( 'NONE',  ( 0.0000000000000000000, 0.0000000000000000000, 0.0000000000000000000 ) ) ;
#173 = CC_DESIGN_PERSON_AND_ORGANIZATION_ASSIGNMENT ( #177, #106, ( #9 ) ) ;
#174 = DIRECTION ( 'NONE',  ( 0.0000000000000000000, 1.000000000000000000, 0.0000000000000000000 ) ) ;
#175 = CARTESIAN_POINT ( 'NONE',  ( 1.396592535537252553E-15, 3.025000000000024780, 0.3999999999999997446 ) ) ;
#176 = AXIS2_PLACEMENT_3D ( 'NONE', #172, #155, #187 ) ;
#177 = PERSON_AND_ORGANIZATION ( #200, #30 ) ;
#178 = COORDINATED_UNIVERSAL_TIME_OFFSET ( 1, 0, .AHEAD. ) ;
#179 = CONICAL_SURFACE ( 'NONE', #52, 3.025000000000024780, 0.5235987755983002589 ) ;
#180 = MECHANICAL_CONTEXT ( 'NONE', #16, 'mechanical' ) ;
#181 = APPROVAL ( #100, 'UNSPECIFIED' ) ;
#182 = PERSON_AND_ORGANIZATION ( #200, #30 ) ;
#183 =( GEOMETRIC_REPRESENTATION_CONTEXT ( 3 ) GLOBAL_UNCERTAINTY_ASSIGNED_CONTEXT ( ( #71 ) ) GLOBAL_UNIT_ASSIGNED_CONTEXT ( ( #58, #191, #99 ) ) REPRESENTATION_CONTEXT ( 'NONE', 'WORKASPACE' ) );
#184 = FACE_OUTER_BOUND ( 'NONE', #165, .T. ) ;
#185 = DIRECTION ( 'NONE',  ( 0.0000000000000000000, 1.000000000000000000, 0.0000000000000000000 ) ) ;
#186 = CARTESIAN_POINT ( 'NONE',  ( -1.122405754547961684E-30, 3.936869429487410979E-32, -3.214697847761830673E-16 ) ) ;
#187 = DIRECTION ( 'NONE',  ( 4.275831445896958607E-31, 1.000000000000000000, 1.224646799147353207E-16 ) ) ;
#188 = EDGE_CURVE ( 'NONE', #135, #135, #227, .T. ) ;
#189 = AXIS2_PLACEMENT_3D ( 'NONE', #48, #215, #82 ) ;
#190 = CARTESIAN_POINT ( 'NONE',  ( 4.189777606611760026E-14, 2.268386671276076190E-32, 12.00000000000000000 ) ) ;
#191 =( NAMED_UNIT ( * ) PLANE_ANGLE_UNIT ( ) SI_UNIT ( $, .RADIAN. ) );
#192 = DIRECTION ( 'NONE',  ( 0.0000000000000000000, 1.000000000000000000, 0.0000000000000000000 ) ) ;
#193 = CIRCLE ( 'NONE', #120, 1.999999999999992228 ) ;
#194 = SHAPE_DEFINITION_REPRESENTATION ( #22, #112 ) ;
#195 = CALENDAR_DATE ( 2021, 2, 12 ) ;
#196 = DATE_AND_TIME ( #195, #157 ) ;
#197 = EDGE_CURVE ( 'NONE', #139, #139, #220, .T. ) ;
#198 = CONICAL_SURFACE ( 'NONE', #95, 1.600000000000000977, 0.7853981633974512766 ) ;
#199 = DATE_AND_TIME ( #1, #149 ) ;
#200 = PERSON ( 'UNSPECIFIED', 'UNSPECIFIED', 'UNSPECIFIED', ('UNSPECIFIED'), ('UNSPECIFIED'), ('UNSPECIFIED') ) ;
#201 = EDGE_CURVE ( 'NONE', #154, #154, #132, .T. ) ;
#202 = EDGE_LOOP ( 'NONE', ( #125 ) ) ;
#203 = ORIENTED_EDGE ( 'NONE', *, *, #197, .F. ) ;
#204 = DIRECTION ( 'NONE',  ( -3.491481338843133355E-15, 1.224646799147353207E-16, -1.000000000000000000 ) ) ;
#205 = CARTESIAN_POINT ( 'NONE',  ( 2.793185071074506684E-13, -9.797174393178826052E-15, 80.00000000000000000 ) ) ;
#206 = EDGE_CURVE ( 'NONE', #24, #24, #193, .T. ) ;
#207 = DIRECTION ( 'NONE',  ( -3.491481338843133355E-15, 1.224646799147353207E-16, -1.000000000000000000 ) ) ;
#208 = DIRECTION ( 'NONE',  ( -3.491481338843133355E-15, 1.224646799147353207E-16, -1.000000000000000000 ) ) ;
#209 = AXIS2_PLACEMENT_3D ( 'NONE', #20, #56, #174 ) ;
#210 = CARTESIAN_POINT ( 'NONE',  ( 4.809638471548656617E-14, 1.999999999999990452, 13.77535207775814996 ) ) ;
#211 = DIRECTION ( 'NONE',  ( 3.491481338843133355E-15, -1.224646799147353207E-16, 1.000000000000000000 ) ) ;
#212 = CARTESIAN_POINT ( 'NONE',  ( 4.189777606611760026E-14, 3.025000000000023448, 12.00000000000000000 ) ) ;
#213 = CALENDAR_DATE ( 2021, 2, 12 ) ;
#214 = PRODUCT ( '321831', '321831', '', ( #180 ) ) ;
#215 = DIRECTION ( 'NONE',  ( 0.0000000000000000000, 0.0000000000000000000, 1.000000000000000000 ) ) ;
#216 = APPROVAL ( #123, 'UNSPECIFIED' ) ;
#217 = LOCAL_TIME ( 13, 58, 18.00000000000000000, #6 ) ;
#218 = EDGE_LOOP ( 'NONE', ( #68 ) ) ;
#219 = DIRECTION ( 'NONE',  ( 0.0000000000000000000, 1.000000000000000000, 0.0000000000000000000 ) ) ;
#220 = CIRCLE ( 'NONE', #209, 3.025000000000024780 ) ;
#221 = DIRECTION ( 'NONE',  ( -3.491481338843133355E-15, 1.224646799147353207E-16, -1.000000000000000000 ) ) ;
#222 = DIRECTION ( 'NONE',  ( 3.491481338843133355E-15, -1.224646799147353207E-16, 1.000000000000000000 ) ) ;
#223 = CARTESIAN_POINT ( 'NONE',  ( -1.710569414459005214E-46, 2.625000000000023093, 0.0000000000000000000 ) ) ;
#224 = DIRECTION ( 'NONE',  ( 4.456697391970426419E-31, 1.000000000000000000, 1.254448794611317111E-16 ) ) ;
#225 = CARTESIAN_POINT ( 'NONE',  ( -5.612028772739808421E-31, 1.968434714743705490E-32, -1.607348923880915336E-16 ) ) ;
#226 = PERSON_AND_ORGANIZATION ( #200, #30 ) ;
#227 = CIRCLE ( 'NONE', #86, 1.600000000000000977 ) ;
#228 = CALENDAR_DATE ( 2021, 2, 12 ) ;
#229 = PERSON_AND_ORGANIZATION ( #200, #30 ) ;
#230 = AXIS2_PLACEMENT_3D ( 'NONE', #41, #211, #38 ) ;
#231 = PERSON_AND_ORGANIZATION_ROLE ( 'creator' ) ;
#232 = ORIENTED_EDGE ( 'NONE', *, *, #201, .T. ) ;
#233 = CC_DESIGN_PERSON_AND_ORGANIZATION_ASSIGNMENT ( #182, #27, ( #40 ) ) ;
#234 = APPROVAL_PERSON_ORGANIZATION ( #105, #83, #25 ) ;
#235 = EDGE_LOOP ( 'NONE', ( #128 ) ) ;
#236 = DIRECTION ( 'NONE',  ( -3.491481338843133355E-15, 1.224646799147353207E-16, -1.000000000000000000 ) ) ;
#237 = CARTESIAN_POINT ( 'NONE',  ( 0.0000000000000000000, 0.0000000000000000000, 0.0000000000000000000 ) ) ;
#238 = EDGE_CURVE ( 'NONE', #43, #43, #104, .T. ) ;
#239 = AXIS2_PLACEMENT_3D ( 'NONE', #186, #94, #169 ) ;
#240 = PLANE ( 'NONE',  #127 ) ;
#241 = CYLINDRICAL_SURFACE ( 'NONE', #176, 3.025000000000024780 ) ;
#242 = CARTESIAN_POINT ( 'NONE',  ( 1.396592535537251173E-15, -4.898587196589405063E-17, 0.3999999999999993561 ) ) ;
#243 = CC_DESIGN_PERSON_AND_ORGANIZATION_ASSIGNMENT ( #80, #146, ( #214 ) ) ;
ENDSEC;
END-ISO-10303-21;
