ISO-10303-21;
HEADER;
FILE_DESCRIPTION (( 'STEP AP203' ),
    '1' );
FILE_NAME ('321829.step',
    '2021-12-02T12:58:16',
    ( '' ),
    ( '' ),
    'SwSTEP 2.0',
    'SolidWorks 2019',
    '' );
FILE_SCHEMA (( 'CONFIG_CONTROL_DESIGN' ));
ENDSEC;

DATA;
#1 = APPROVAL_ROLE ( '' ) ;
#2 = CARTESIAN_POINT ( 'NONE',  ( 2.793185071074506684E-13, 1.599999999999991207, 80.00000000000000000 ) ) ;
#3 = CIRCLE ( 'NONE', #41, 3.015000000000024993 ) ;
#4 = VERTEX_POINT ( 'NONE', #77 ) ;
#5 = SECURITY_CLASSIFICATION_LEVEL ( 'unclassified' ) ;
#6 = ADVANCED_BREP_SHAPE_REPRESENTATION ( '321829', ( #148, #146, #159 ), #103 ) ;
#7 = ADVANCED_FACE ( 'NONE', ( #116, #175 ), #98, .T. ) ;
#8 = AXIS2_PLACEMENT_3D ( 'NONE', #38, #111, #134 ) ;
#9 = ORIENTED_EDGE ( 'NONE', *, *, #26, .T. ) ;
#10 = ORIENTED_EDGE ( 'NONE', *, *, #115, .F. ) ;
#11 = PERSON_AND_ORGANIZATION_ROLE ( 'creator' ) ;
#12 = PLANE ( 'NONE',  #17 ) ;
#13 = CARTESIAN_POINT ( 'NONE',  ( 2.793185071074506684E-13, 1.199807826129472128E-32, 80.00000000000000000 ) ) ;
#14 = DIRECTION ( 'NONE',  ( 0.0000000000000000000, 1.000000000000000000, 0.0000000000000000000 ) ) ;
#15 = PERSON ( 'UNSPECIFIED', 'UNSPECIFIED', 'UNSPECIFIED', ('UNSPECIFIED'), ('UNSPECIFIED'), ('UNSPECIFIED') ) ;
#16 = DIRECTION ( 'NONE',  ( -3.491481338843133355E-15, 1.224646799147353207E-16, -1.000000000000000000 ) ) ;
#17 = AXIS2_PLACEMENT_3D ( 'NONE', #13, #51, #147 ) ;
#18 = DIRECTION ( 'NONE',  ( 4.471479141197525312E-31, 1.000000000000000000, 1.258609487130757529E-16 ) ) ;
#19 = CALENDAR_DATE ( 2021, 2, 12 ) ;
#20 =( NAMED_UNIT ( * ) PLANE_ANGLE_UNIT ( ) SI_UNIT ( $, .RADIAN. ) );
#21 = CARTESIAN_POINT ( 'NONE',  ( 4.189777606611760026E-14, 3.015000000000023661, 12.00000000000000000 ) ) ;
#22 = PERSON_AND_ORGANIZATION ( #15, #135 ) ;
#23 = EDGE_CURVE ( 'NONE', #75, #75, #140, .T. ) ;
#24 = CC_DESIGN_APPROVAL ( #200, ( #93 ) ) ;
#25 = CARTESIAN_POINT ( 'NONE',  ( -1.118129923102064741E-30, 3.921871831660793389E-32, -3.202451379770357907E-16 ) ) ;
#26 = EDGE_CURVE ( 'NONE', #4, #4, #157, .T. ) ;
#27 = SHAPE_DEFINITION_REPRESENTATION ( #59, #6 ) ;
#28 = AXIS2_PLACEMENT_3D ( 'NONE', #86, #145, #129 ) ;
#29 = FACE_OUTER_BOUND ( 'NONE', #65, .T. ) ;
#30 = DIRECTION ( 'NONE',  ( -3.491481338843133355E-15, 1.224646799147353207E-16, -1.000000000000000000 ) ) ;
#31 = CARTESIAN_POINT ( 'NONE',  ( 2.793185071074506684E-13, -9.797174393178826052E-15, 80.00000000000000000 ) ) ;
#32 = FACE_BOUND ( 'NONE', #95, .T. ) ;
#33 = ADVANCED_FACE ( 'NONE', ( #164 ), #12, .F. ) ;
#34 = LOCAL_TIME ( 13, 58, 16.00000000000000000, #153 ) ;
#35 = APPROVAL_ROLE ( '' ) ;
#36 = CARTESIAN_POINT ( 'NONE',  ( 0.0000000000000000000, 0.0000000000000000000, 0.0000000000000000000 ) ) ;
#37 = APPROVAL_STATUS ( 'not_yet_approved' ) ;
#38 = CARTESIAN_POINT ( 'NONE',  ( 0.0000000000000000000, 0.0000000000000000000, 0.0000000000000000000 ) ) ;
#39 = CARTESIAN_POINT ( 'NONE',  ( 4.803591048476101609E-14, 1.999999999999990452, 13.75803156968246199 ) ) ;
#40 = ORIENTED_EDGE ( 'NONE', *, *, #180, .F. ) ;
#41 = AXIS2_PLACEMENT_3D ( 'NONE', #243, #30, #18 ) ;
#42 = ORIENTED_EDGE ( 'NONE', *, *, #81, .F. ) ;
#43 = EDGE_LOOP ( 'NONE', ( #10 ) ) ;
#44 = PERSON_AND_ORGANIZATION_ROLE ( 'design_supplier' ) ;
#45 = DIRECTION ( 'NONE',  ( -3.491481338843133355E-15, 1.224646799147353207E-16, -1.000000000000000000 ) ) ;
#46 = FACE_OUTER_BOUND ( 'NONE', #217, .T. ) ;
#47 = PRODUCT_RELATED_PRODUCT_CATEGORY ( 'detail', '', ( #215 ) ) ;
#48 = PERSON_AND_ORGANIZATION_ROLE ( 'classification_officer' ) ;
#49 = SECURITY_CLASSIFICATION ( '', '', #5 ) ;
#50 = FACE_BOUND ( 'NONE', #237, .T. ) ;
#51 = DIRECTION ( 'NONE',  ( -3.491481338843133355E-15, 1.224646799147353207E-16, -1.000000000000000000 ) ) ;
#52 = PLANE ( 'NONE',  #208 ) ;
#53 = CC_DESIGN_PERSON_AND_ORGANIZATION_ASSIGNMENT ( #155, #48, ( #49 ) ) ;
#54 = DATE_AND_TIME ( #230, #34 ) ;
#55 = CC_DESIGN_PERSON_AND_ORGANIZATION_ASSIGNMENT ( #194, #78, ( #144 ) ) ;
#56 = DIRECTION ( 'NONE',  ( 0.0000000000000000000, 0.0000000000000000000, 1.000000000000000000 ) ) ;
#57 = APPROVAL_DATE_TIME ( #54, #96 ) ;
#58 = CC_DESIGN_APPROVAL ( #128, ( #49 ) ) ;
#59 = PRODUCT_DEFINITION_SHAPE ( 'NONE', 'NONE',  #144 ) ;
#60 = VERTEX_POINT ( 'NONE', #173 ) ;
#61 = EDGE_LOOP ( 'NONE', ( #121 ) ) ;
#62 = CLOSED_SHELL ( 'NONE', ( #64, #227, #210, #212 ) ) ;
#63 = AXIS2_PLACEMENT_3D ( 'NONE', #185, #102, #205 ) ;
#64 = ADVANCED_FACE ( 'NONE', ( #106, #70 ), #167, .T. ) ;
#65 = EDGE_LOOP ( 'NONE', ( #158 ) ) ;
#66 = APPROVAL_PERSON_ORGANIZATION ( #22, #200, #1 ) ;
#67 = PLANE ( 'NONE',  #99 ) ;
#68 = PERSON_AND_ORGANIZATION ( #15, #135 ) ;
#69 = CARTESIAN_POINT ( 'NONE',  ( 4.189777606611760026E-14, 2.260887872362767121E-32, 12.00000000000000000 ) ) ;
#70 = FACE_OUTER_BOUND ( 'NONE', #117, .T. ) ;
#71 = CIRCLE ( 'NONE', #151, 1.999999999999992228 ) ;
#72 = CARTESIAN_POINT ( 'NONE',  ( -5.590649615510323707E-31, 1.960935915830396694E-32, -1.601225689885178954E-16 ) ) ;
#73 = DIRECTION ( 'NONE',  ( 0.0000000000000000000, 1.000000000000000000, 0.0000000000000000000 ) ) ;
#74 = COORDINATED_UNIVERSAL_TIME_OFFSET ( 1, 0, .AHEAD. ) ;
#75 = VERTEX_POINT ( 'NONE', #2 ) ;
#76 = AXIS2_PLACEMENT_3D ( 'NONE', #182, #87, #14 ) ;
#77 = CARTESIAN_POINT ( 'NONE',  ( 2.779219145719134403E-13, 1.999999999999991340, 79.60000000000000853 ) ) ;
#78 = PERSON_AND_ORGANIZATION_ROLE ( 'creator' ) ;
#79 = CC_DESIGN_APPROVAL ( #96, ( #144 ) ) ;
#80 = CALENDAR_DATE ( 2021, 2, 12 ) ;
#81 = EDGE_CURVE ( 'NONE', #172, #172, #176, .T. ) ;
#82 = APPROVAL_PERSON_ORGANIZATION ( #213, #96, #35 ) ;
#83 = EDGE_LOOP ( 'NONE', ( #179 ) ) ;
#84 = PERSON_AND_ORGANIZATION ( #15, #135 ) ;
#85 = DATE_AND_TIME ( #178, #166 ) ;
#86 = CARTESIAN_POINT ( 'NONE',  ( 4.189777606611760026E-14, -1.469576158976823947E-15, 12.00000000000000000 ) ) ;
#87 = DIRECTION ( 'NONE',  ( -3.491481338843133355E-15, 1.224646799147353207E-16, -1.000000000000000000 ) ) ;
#88 = FACE_OUTER_BOUND ( 'NONE', #235, .T. ) ;
#89 = AXIS2_PLACEMENT_3D ( 'NONE', #25, #127, #225 ) ;
#90 = FACE_OUTER_BOUND ( 'NONE', #219, .T. ) ;
#91 = DIRECTION ( 'NONE',  ( 3.491481338843133355E-15, -1.224646799147353207E-16, 1.000000000000000000 ) ) ;
#92 = VERTEX_POINT ( 'NONE', #94 ) ;
#93 = PRODUCT_DEFINITION_FORMATION_WITH_SPECIFIED_SOURCE ( 'ANY', '', #215, .NOT_KNOWN. ) ;
#94 = CARTESIAN_POINT ( 'NONE',  ( 1.396592535537252553E-15, 3.015000000000024993, 0.3999999999999997446 ) ) ;
#95 = EDGE_LOOP ( 'NONE', ( #40 ) ) ;
#96 = APPROVAL ( #37, 'UNSPECIFIED' ) ;
#97 = ORIENTED_EDGE ( 'NONE', *, *, #23, .T. ) ;
#98 = CONICAL_SURFACE ( 'NONE', #154, 1.600000000000000977, 0.7853981633974512766 ) ;
#99 = AXIS2_PLACEMENT_3D ( 'NONE', #69, #143, #222 ) ;
#100 = ORIENTED_EDGE ( 'NONE', *, *, #115, .T. ) ;
#101 = APPROVAL_ROLE ( '' ) ;
#102 = DIRECTION ( 'NONE',  ( -3.491481338843133355E-15, 1.224646799147353207E-16, -1.000000000000000000 ) ) ;
#103 =( GEOMETRIC_REPRESENTATION_CONTEXT ( 3 ) GLOBAL_UNCERTAINTY_ASSIGNED_CONTEXT ( ( #192 ) ) GLOBAL_UNIT_ASSIGNED_CONTEXT ( ( #110, #20, #209 ) ) REPRESENTATION_CONTEXT ( 'NONE', 'WORKASPACE' ) );
#104 = CYLINDRICAL_SURFACE ( 'NONE', #8, 1.999999999999996669 ) ;
#105 = DIRECTION ( 'NONE',  ( -3.491481338843133355E-15, 1.224646799147353207E-16, -1.000000000000000000 ) ) ;
#106 = FACE_OUTER_BOUND ( 'NONE', #61, .T. ) ;
#107 = DIRECTION ( 'NONE',  ( -3.491481338843133355E-15, 1.224646799147353207E-16, -1.000000000000000000 ) ) ;
#108 = APPLICATION_PROTOCOL_DEFINITION ( 'international standard', 'config_control_design', 1994, #231 ) ;
#109 = CC_DESIGN_DATE_AND_TIME_ASSIGNMENT ( #85, #161, ( #49 ) ) ;
#110 =( LENGTH_UNIT ( ) NAMED_UNIT ( * ) SI_UNIT ( .MILLI., .METRE. ) );
#111 = DIRECTION ( 'NONE',  ( -3.491481338843133355E-15, 1.224646799147353207E-16, -1.000000000000000000 ) ) ;
#112 = DATE_AND_TIME ( #19, #196 ) ;
#113 = EDGE_LOOP ( 'NONE', ( #9 ) ) ;
#114 = AXIS2_PLACEMENT_3D ( 'NONE', #242, #163, #188 ) ;
#115 = EDGE_CURVE ( 'NONE', #193, #193, #71, .T. ) ;
#116 = FACE_OUTER_BOUND ( 'NONE', #160, .T. ) ;
#117 = EDGE_LOOP ( 'NONE', ( #137 ) ) ;
#118 = DESIGN_CONTEXT ( 'detailed design', #169, 'design' ) ;
#119 = LOCAL_TIME ( 13, 58, 16.00000000000000000, #74 ) ;
#120 = EDGE_CURVE ( 'NONE', #92, #92, #3, .T. ) ;
#121 = ORIENTED_EDGE ( 'NONE', *, *, #136, .T. ) ;
#122 = CARTESIAN_POINT ( 'NONE',  ( 4.189777606611760026E-14, 2.260887872362767121E-32, 12.00000000000000000 ) ) ;
#123 = FACE_OUTER_BOUND ( 'NONE', #43, .T. ) ;
#124 = AXIS2_PLACEMENT_3D ( 'NONE', #241, #141, #130 ) ;
#125 = COORDINATED_UNIVERSAL_TIME_OFFSET ( 1, 0, .AHEAD. ) ;
#126 = CIRCLE ( 'NONE', #28, 3.015000000000024993 ) ;
#127 = DIRECTION ( 'NONE',  ( -3.491481338843133355E-15, 1.224646799147353207E-16, -1.000000000000000000 ) ) ;
#128 = APPROVAL ( #204, 'UNSPECIFIED' ) ;
#129 = DIRECTION ( 'NONE',  ( 0.0000000000000000000, 1.000000000000000000, 0.0000000000000000000 ) ) ;
#130 = DIRECTION ( 'NONE',  ( 0.0000000000000000000, 1.000000000000000000, 0.0000000000000000000 ) ) ;
#131 = AXIS2_PLACEMENT_3D ( 'NONE', #72, #45, #207 ) ;
#132 = MECHANICAL_CONTEXT ( 'NONE', #231, 'mechanical' ) ;
#133 = PERSON_AND_ORGANIZATION_ROLE ( 'design_owner' ) ;
#134 = DIRECTION ( 'NONE',  ( 4.275831445896958607E-31, 1.000000000000000000, 1.224646799147353207E-16 ) ) ;
#135 = ORGANIZATION ( 'UNSPECIFIED', 'UNSPECIFIED', '' ) ;
#136 = EDGE_CURVE ( 'NONE', #191, #191, #126, .T. ) ;
#137 = ORIENTED_EDGE ( 'NONE', *, *, #120, .F. ) ;
#138 = CONICAL_SURFACE ( 'NONE', #114, 3.015000000000024993, 0.5235987755983003700 ) ;
#139 = ORIENTED_EDGE ( 'NONE', *, *, #23, .F. ) ;
#140 = CIRCLE ( 'NONE', #124, 1.600000000000000977 ) ;
#141 = DIRECTION ( 'NONE',  ( -3.491481338843133355E-15, 1.224646799147353207E-16, -1.000000000000000000 ) ) ;
#142 = PERSON_AND_ORGANIZATION ( #15, #135 ) ;
#143 = DIRECTION ( 'NONE',  ( 3.491481338843133355E-15, -1.224646799147353207E-16, 1.000000000000000000 ) ) ;
#144 = PRODUCT_DEFINITION ( 'UNKNOWN', '', #93, #118 ) ;
#145 = DIRECTION ( 'NONE',  ( -3.491481338843133355E-15, 1.224646799147353207E-16, -1.000000000000000000 ) ) ;
#146 = MANIFOLD_SOLID_BREP ( 'Corps-Déplacer/Copier1[2]', #62 ) ;
#147 = DIRECTION ( 'NONE',  ( 4.275831445896958607E-31, 1.000000000000000000, 1.224646799147353207E-16 ) ) ;
#148 = MANIFOLD_SOLID_BREP ( 'Corps-Déplacer/Copier1[1]', #202 ) ;
#149 = DIRECTION ( 'NONE',  ( 3.491481338843133355E-15, -1.224646799147353207E-16, 1.000000000000000000 ) ) ;
#150 = CALENDAR_DATE ( 2021, 2, 12 ) ;
#151 = AXIS2_PLACEMENT_3D ( 'NONE', #220, #16, #184 ) ;
#152 = PERSON_AND_ORGANIZATION ( #15, #135 ) ;
#153 = COORDINATED_UNIVERSAL_TIME_OFFSET ( 1, 0, .AHEAD. ) ;
#154 = AXIS2_PLACEMENT_3D ( 'NONE', #31, #107, #226 ) ;
#155 = PERSON_AND_ORGANIZATION ( #15, #135 ) ;
#156 = ORIENTED_EDGE ( 'NONE', *, *, #26, .F. ) ;
#157 = CIRCLE ( 'NONE', #186, 2.000000000000000888 ) ;
#158 = ORIENTED_EDGE ( 'NONE', *, *, #136, .F. ) ;
#159 = AXIS2_PLACEMENT_3D ( 'NONE', #36, #56, #229 ) ;
#160 = EDGE_LOOP ( 'NONE', ( #156 ) ) ;
#161 = DATE_TIME_ROLE ( 'classification_date' ) ;
#162 = ADVANCED_FACE ( 'NONE', ( #90 ), #52, .F. ) ;
#163 = DIRECTION ( 'NONE',  ( -3.491481338843133355E-15, 1.224646799147353207E-16, -1.000000000000000000 ) ) ;
#164 = FACE_OUTER_BOUND ( 'NONE', #236, .T. ) ;
#165 = PLANE ( 'NONE',  #131 ) ;
#166 = LOCAL_TIME ( 13, 58, 16.00000000000000000, #125 ) ;
#167 = CYLINDRICAL_SURFACE ( 'NONE', #63, 3.015000000000024993 ) ;
#168 = APPROVAL_STATUS ( 'not_yet_approved' ) ;
#169 = APPLICATION_CONTEXT ( 'configuration controlled 3d designs of mechanical parts and assemblies' ) ;
#170 = APPROVAL_DATE_TIME ( #228, #200 ) ;
#171 = ADVANCED_FACE ( 'NONE', ( #50, #46 ), #138, .T. ) ;
#172 = VERTEX_POINT ( 'NONE', #21 ) ;
#173 = CARTESIAN_POINT ( 'NONE',  ( 0.0000000000000000000, 2.615000000000023750, 0.0000000000000000000 ) ) ;
#174 = ORIENTED_EDGE ( 'NONE', *, *, #81, .T. ) ;
#175 = FACE_BOUND ( 'NONE', #197, .T. ) ;
#176 = CIRCLE ( 'NONE', #76, 3.015000000000024993 ) ;
#177 = CC_DESIGN_PERSON_AND_ORGANIZATION_ASSIGNMENT ( #68, #11, ( #93 ) ) ;
#178 = CALENDAR_DATE ( 2021, 2, 12 ) ;
#179 = ORIENTED_EDGE ( 'NONE', *, *, #120, .T. ) ;
#180 = EDGE_CURVE ( 'NONE', #60, #60, #214, .T. ) ;
#181 = DATE_AND_TIME ( #80, #187 ) ;
#182 = CARTESIAN_POINT ( 'NONE',  ( 4.189777606611760026E-14, -1.469576158976823947E-15, 12.00000000000000000 ) ) ;
#183 = CC_DESIGN_SECURITY_CLASSIFICATION ( #49, ( #93 ) ) ;
#184 = DIRECTION ( 'NONE',  ( 0.0000000000000000000, 1.000000000000000000, 0.0000000000000000000 ) ) ;
#185 = CARTESIAN_POINT ( 'NONE',  ( 0.0000000000000000000, 0.0000000000000000000, 0.0000000000000000000 ) ) ;
#186 = AXIS2_PLACEMENT_3D ( 'NONE', #199, #105, #73 ) ;
#187 = LOCAL_TIME ( 13, 58, 16.00000000000000000, #221 ) ;
#188 = DIRECTION ( 'NONE',  ( 0.0000000000000000000, 1.000000000000000000, 0.0000000000000000000 ) ) ;
#189 = CC_DESIGN_DATE_AND_TIME_ASSIGNMENT ( #112, #195, ( #144 ) ) ;
#190 = CARTESIAN_POINT ( 'NONE',  ( 4.189777606611760026E-14, 3.015000000000023661, 12.00000000000000000 ) ) ;
#191 = VERTEX_POINT ( 'NONE', #190 ) ;
#192 = UNCERTAINTY_MEASURE_WITH_UNIT (LENGTH_MEASURE( 1.000000000000000082E-05 ), #110, 'distance_accuracy_value', 'NONE');
#193 = VERTEX_POINT ( 'NONE', #39 ) ;
#194 = PERSON_AND_ORGANIZATION ( #15, #135 ) ;
#195 = DATE_TIME_ROLE ( 'creation_date' ) ;
#196 = LOCAL_TIME ( 13, 58, 16.00000000000000000, #233 ) ;
#197 = EDGE_LOOP ( 'NONE', ( #97 ) ) ;
#198 = APPROVAL_DATE_TIME ( #181, #128 ) ;
#199 = CARTESIAN_POINT ( 'NONE',  ( 2.779219145719134403E-13, -9.748188521212932624E-15, 79.60000000000000853 ) ) ;
#200 = APPROVAL ( #168, 'UNSPECIFIED' ) ;
#201 = FACE_OUTER_BOUND ( 'NONE', #113, .T. ) ;
#202 = CLOSED_SHELL ( 'NONE', ( #162, #171, #234, #7, #33 ) ) ;
#203 = CONICAL_SURFACE ( 'NONE', #232, 2.615000000000023750, 0.7853981633974504994 ) ;
#204 = APPROVAL_STATUS ( 'not_yet_approved' ) ;
#205 = DIRECTION ( 'NONE',  ( 4.275831445896958607E-31, 1.000000000000000000, 1.224646799147353207E-16 ) ) ;
#206 = CARTESIAN_POINT ( 'NONE',  ( -1.118129923102064741E-30, 3.921871831660793389E-32, -3.202451379770357907E-16 ) ) ;
#207 = DIRECTION ( 'NONE',  ( 4.275831445896958607E-31, 1.000000000000000000, 1.224646799147353207E-16 ) ) ;
#208 = AXIS2_PLACEMENT_3D ( 'NONE', #122, #149, #223 ) ;
#209 =( NAMED_UNIT ( * ) SI_UNIT ( $, .STERADIAN. ) SOLID_ANGLE_UNIT ( ) );
#210 = ADVANCED_FACE ( 'NONE', ( #88 ), #165, .T. ) ;
#211 = CC_DESIGN_PERSON_AND_ORGANIZATION_ASSIGNMENT ( #84, #44, ( #93 ) ) ;
#212 = ADVANCED_FACE ( 'NONE', ( #240, #32 ), #203, .T. ) ;
#213 = PERSON_AND_ORGANIZATION ( #15, #135 ) ;
#214 = CIRCLE ( 'NONE', #89, 2.615000000000023750 ) ;
#215 = PRODUCT ( '321829', '321829', '', ( #132 ) ) ;
#216 = APPLICATION_PROTOCOL_DEFINITION ( 'international standard', 'config_control_design', 1994, #169 ) ;
#217 = EDGE_LOOP ( 'NONE', ( #42 ) ) ;
#218 = ORIENTED_EDGE ( 'NONE', *, *, #180, .T. ) ;
#219 = EDGE_LOOP ( 'NONE', ( #174 ) ) ;
#220 = CARTESIAN_POINT ( 'NONE',  ( 4.803591048476101609E-14, -1.684872932437986231E-15, 13.75803156968246199 ) ) ;
#221 = COORDINATED_UNIVERSAL_TIME_OFFSET ( 1, 0, .AHEAD. ) ;
#222 = DIRECTION ( 'NONE',  ( -4.275831445896958607E-31, -1.000000000000000000, -1.224646799147353207E-16 ) ) ;
#223 = DIRECTION ( 'NONE',  ( -4.275831445896958607E-31, -1.000000000000000000, -1.224646799147353207E-16 ) ) ;
#224 = CC_DESIGN_PERSON_AND_ORGANIZATION_ASSIGNMENT ( #152, #133, ( #215 ) ) ;
#225 = DIRECTION ( 'NONE',  ( 4.275831445896958607E-31, 1.000000000000000000, 1.224646799147353207E-16 ) ) ;
#226 = DIRECTION ( 'NONE',  ( 0.0000000000000000000, 1.000000000000000000, 0.0000000000000000000 ) ) ;
#227 = ADVANCED_FACE ( 'NONE', ( #29 ), #67, .T. ) ;
#228 = DATE_AND_TIME ( #150, #119 ) ;
#229 = DIRECTION ( 'NONE',  ( 1.000000000000000000, 0.0000000000000000000, 0.0000000000000000000 ) ) ;
#230 = CALENDAR_DATE ( 2021, 2, 12 ) ;
#231 = APPLICATION_CONTEXT ( 'configuration controlled 3d designs of mechanical parts and assemblies' ) ;
#232 = AXIS2_PLACEMENT_3D ( 'NONE', #206, #91, #238 ) ;
#233 = COORDINATED_UNIVERSAL_TIME_OFFSET ( 1, 0, .AHEAD. ) ;
#234 = ADVANCED_FACE ( 'NONE', ( #123, #201 ), #104, .T. ) ;
#235 = EDGE_LOOP ( 'NONE', ( #218 ) ) ;
#236 = EDGE_LOOP ( 'NONE', ( #139 ) ) ;
#237 = EDGE_LOOP ( 'NONE', ( #100 ) ) ;
#238 = DIRECTION ( 'NONE',  ( -4.275831445896958607E-31, -1.000000000000000000, -1.224646799147353207E-16 ) ) ;
#239 = APPROVAL_PERSON_ORGANIZATION ( #142, #128, #101 ) ;
#240 = FACE_OUTER_BOUND ( 'NONE', #83, .T. ) ;
#241 = CARTESIAN_POINT ( 'NONE',  ( 2.793185071074506684E-13, -9.797174393178826052E-15, 80.00000000000000000 ) ) ;
#242 = CARTESIAN_POINT ( 'NONE',  ( 4.189777606611760026E-14, -1.469576158976823947E-15, 12.00000000000000000 ) ) ;
#243 = CARTESIAN_POINT ( 'NONE',  ( 1.396592535537251173E-15, -4.898587196589405063E-17, 0.3999999999999993561 ) ) ;
ENDSEC;
END-ISO-10303-21;
