ISO-10303-21;
HEADER;
FILE_DESCRIPTION (( 'STEP AP203' ),
    '1' );
FILE_NAME ('321828.step',
    '2021-12-02T12:58:16',
    ( '' ),
    ( '' ),
    'SwSTEP 2.0',
    'SolidWorks 2019',
    '' );
FILE_SCHEMA (( 'CONFIG_CONTROL_DESIGN' ));
ENDSEC;

DATA;
#1 = PRODUCT ( '321828', '321828', '', ( #159 ) ) ;
#2 = EDGE_LOOP ( 'NONE', ( #200 ) ) ;
#3 = ADVANCED_FACE ( 'NONE', ( #90 ), #37, .F. ) ;
#4 = FACE_OUTER_BOUND ( 'NONE', #167, .T. ) ;
#5 = CIRCLE ( 'NONE', #14, 3.010000000000025100 ) ;
#6 = LOCAL_TIME ( 13, 58, 16.00000000000000000, #54 ) ;
#7 = CARTESIAN_POINT ( 'NONE',  ( -5.579960036895582225E-31, 1.957186516373742297E-32, -1.598164072887310516E-16 ) ) ;
#8 = FACE_BOUND ( 'NONE', #2, .T. ) ;
#9 = CARTESIAN_POINT ( 'NONE',  ( 4.189777606611760026E-14, 2.257138472906112997E-32, 12.00000000000000000 ) ) ;
#10 = APPROVAL ( #66, 'UNSPECIFIED' ) ;
#11 = DIRECTION ( 'NONE',  ( -4.275831445896958607E-31, -1.000000000000000000, -1.224646799147353207E-16 ) ) ;
#12 = ADVANCED_BREP_SHAPE_REPRESENTATION ( '321828', ( #144, #220, #30 ), #130 ) ;
#13 = PERSON_AND_ORGANIZATION_ROLE ( 'design_owner' ) ;
#14 = AXIS2_PLACEMENT_3D ( 'NONE', #28, #27, #152 ) ;
#15 =( LENGTH_UNIT ( ) NAMED_UNIT ( * ) SI_UNIT ( .MILLI., .METRE. ) );
#16 = DIRECTION ( 'NONE',  ( 1.000000000000000000, 0.0000000000000000000, 0.0000000000000000000 ) ) ;
#17 = EDGE_CURVE ( 'NONE', #176, #176, #195, .T. ) ;
#18 = DATE_TIME_ROLE ( 'classification_date' ) ;
#19 = ORIENTED_EDGE ( 'NONE', *, *, #92, .T. ) ;
#20 = PERSON_AND_ORGANIZATION ( #83, #134 ) ;
#21 = CLOSED_SHELL ( 'NONE', ( #58, #171, #158, #164 ) ) ;
#22 = ORIENTED_EDGE ( 'NONE', *, *, #198, .F. ) ;
#23 = FACE_OUTER_BOUND ( 'NONE', #129, .T. ) ;
#24 = CC_DESIGN_PERSON_AND_ORGANIZATION_ASSIGNMENT ( #201, #109, ( #126 ) ) ;
#25 = DIRECTION ( 'NONE',  ( -3.491481338843133355E-15, 1.224646799147353207E-16, -1.000000000000000000 ) ) ;
#26 = AXIS2_PLACEMENT_3D ( 'NONE', #98, #172, #156 ) ;
#27 = DIRECTION ( 'NONE',  ( -3.491481338843133355E-15, 1.224646799147353207E-16, -1.000000000000000000 ) ) ;
#28 = CARTESIAN_POINT ( 'NONE',  ( 1.396592535537251173E-15, -4.898587196589405063E-17, 0.3999999999999993561 ) ) ;
#29 = DIRECTION ( 'NONE',  ( 4.275831445896958607E-31, 1.000000000000000000, 1.224646799147353207E-16 ) ) ;
#30 = AXIS2_PLACEMENT_3D ( 'NONE', #33, #61, #16 ) ;
#31 = APPROVAL_ROLE ( '' ) ;
#32 = UNCERTAINTY_MEASURE_WITH_UNIT (LENGTH_MEASURE( 1.000000000000000082E-05 ), #15, 'distance_accuracy_value', 'NONE');
#33 = CARTESIAN_POINT ( 'NONE',  ( 0.0000000000000000000, 0.0000000000000000000, 0.0000000000000000000 ) ) ;
#34 = ORIENTED_EDGE ( 'NONE', *, *, #198, .T. ) ;
#35 = APPROVAL_ROLE ( '' ) ;
#36 = EDGE_LOOP ( 'NONE', ( #243 ) ) ;
#37 = PLANE ( 'NONE',  #100 ) ;
#38 = PRODUCT_DEFINITION ( 'UNKNOWN', '', #126, #175 ) ;
#39 = FACE_BOUND ( 'NONE', #50, .T. ) ;
#40 = CARTESIAN_POINT ( 'NONE',  ( 0.0000000000000000000, 0.0000000000000000000, 0.0000000000000000000 ) ) ;
#41 = FACE_OUTER_BOUND ( 'NONE', #240, .T. ) ;
#42 = ADVANCED_FACE ( 'NONE', ( #78 ), #234, .F. ) ;
#43 = DIRECTION ( 'NONE',  ( -3.491481338843133355E-15, 1.224646799147353207E-16, -1.000000000000000000 ) ) ;
#44 = CYLINDRICAL_SURFACE ( 'NONE', #230, 3.010000000000025100 ) ;
#45 = DIRECTION ( 'NONE',  ( 4.275831445896958607E-31, 1.000000000000000000, 1.224646799147353207E-16 ) ) ;
#46 = AXIS2_PLACEMENT_3D ( 'NONE', #7, #184, #119 ) ;
#47 = CIRCLE ( 'NONE', #149, 3.010000000000025100 ) ;
#48 = VERTEX_POINT ( 'NONE', #101 ) ;
#49 = ADVANCED_FACE ( 'NONE', ( #131, #8 ), #150, .T. ) ;
#50 = EDGE_LOOP ( 'NONE', ( #34 ) ) ;
#51 = CC_DESIGN_APPROVAL ( #10, ( #126 ) ) ;
#52 = COORDINATED_UNIVERSAL_TIME_OFFSET ( 1, 0, .AHEAD. ) ;
#53 = ORIENTED_EDGE ( 'NONE', *, *, #216, .F. ) ;
#54 = COORDINATED_UNIVERSAL_TIME_OFFSET ( 1, 0, .AHEAD. ) ;
#55 = APPROVAL_PERSON_ORGANIZATION ( #196, #106, #213 ) ;
#56 = FACE_OUTER_BOUND ( 'NONE', #203, .T. ) ;
#57 = CARTESIAN_POINT ( 'NONE',  ( 4.189777606611760026E-14, 2.257138472906112997E-32, 12.00000000000000000 ) ) ;
#58 = ADVANCED_FACE ( 'NONE', ( #185, #75 ), #44, .T. ) ;
#59 = DIRECTION ( 'NONE',  ( 3.491481338843133355E-15, -1.224646799147353207E-16, 1.000000000000000000 ) ) ;
#60 = DIRECTION ( 'NONE',  ( 0.0000000000000000000, 1.000000000000000000, 0.0000000000000000000 ) ) ;
#61 = DIRECTION ( 'NONE',  ( 0.0000000000000000000, 0.0000000000000000000, 1.000000000000000000 ) ) ;
#62 = PERSON_AND_ORGANIZATION ( #83, #134 ) ;
#63 = AXIS2_PLACEMENT_3D ( 'NONE', #80, #64, #45 ) ;
#64 = DIRECTION ( 'NONE',  ( -3.491481338843133355E-15, 1.224646799147353207E-16, -1.000000000000000000 ) ) ;
#65 = PRODUCT_RELATED_PRODUCT_CATEGORY ( 'detail', '', ( #1 ) ) ;
#66 = APPROVAL_STATUS ( 'not_yet_approved' ) ;
#67 = PERSON_AND_ORGANIZATION ( #83, #134 ) ;
#68 = ORIENTED_EDGE ( 'NONE', *, *, #193, .F. ) ;
#69 = CALENDAR_DATE ( 2021, 2, 12 ) ;
#70 = EDGE_LOOP ( 'NONE', ( #147 ) ) ;
#71 = CLOSED_SHELL ( 'NONE', ( #3, #127, #236, #49, #42 ) ) ;
#72 = CC_DESIGN_APPROVAL ( #233, ( #169 ) ) ;
#73 = PLANE ( 'NONE',  #173 ) ;
#74 = DIRECTION ( 'NONE',  ( -3.491481338843133355E-15, 1.224646799147353207E-16, -1.000000000000000000 ) ) ;
#75 = FACE_OUTER_BOUND ( 'NONE', #166, .T. ) ;
#76 = DIRECTION ( 'NONE',  ( -3.491481338843133355E-15, 1.224646799147353207E-16, -1.000000000000000000 ) ) ;
#77 = CIRCLE ( 'NONE', #199, 2.000000000000000888 ) ;
#78 = FACE_OUTER_BOUND ( 'NONE', #110, .T. ) ;
#79 = CC_DESIGN_PERSON_AND_ORGANIZATION_ASSIGNMENT ( #103, #13, ( #1 ) ) ;
#80 = CARTESIAN_POINT ( 'NONE',  ( 0.0000000000000000000, 0.0000000000000000000, 0.0000000000000000000 ) ) ;
#81 = CALENDAR_DATE ( 2021, 2, 12 ) ;
#82 = LOCAL_TIME ( 13, 58, 16.00000000000000000, #52 ) ;
#83 = PERSON ( 'UNSPECIFIED', 'UNSPECIFIED', 'UNSPECIFIED', ('UNSPECIFIED'), ('UNSPECIFIED'), ('UNSPECIFIED') ) ;
#84 = VERTEX_POINT ( 'NONE', #237 ) ;
#85 = COORDINATED_UNIVERSAL_TIME_OFFSET ( 1, 0, .AHEAD. ) ;
#86 = PERSON_AND_ORGANIZATION_ROLE ( 'creator' ) ;
#87 = CALENDAR_DATE ( 2021, 2, 12 ) ;
#88 = PERSON_AND_ORGANIZATION_ROLE ( 'design_supplier' ) ;
#89 = PERSON_AND_ORGANIZATION_ROLE ( 'classification_officer' ) ;
#90 = FACE_OUTER_BOUND ( 'NONE', #182, .T. ) ;
#91 = APPROVAL_PERSON_ORGANIZATION ( #62, #10, #31 ) ;
#92 = EDGE_CURVE ( 'NONE', #143, #143, #47, .T. ) ;
#93 = ORIENTED_EDGE ( 'NONE', *, *, #151, .F. ) ;
#94 = DIRECTION ( 'NONE',  ( -3.491481338843133355E-15, 1.224646799147353207E-16, -1.000000000000000000 ) ) ;
#95 = CC_DESIGN_PERSON_AND_ORGANIZATION_ASSIGNMENT ( #161, #86, ( #38 ) ) ;
#96 = CARTESIAN_POINT ( 'NONE',  ( -1.115992007379116445E-30, 3.914373032747484593E-32, -3.196328145774621031E-16 ) ) ;
#97 = DIRECTION ( 'NONE',  ( 0.0000000000000000000, 1.000000000000000000, 0.0000000000000000000 ) ) ;
#98 = CARTESIAN_POINT ( 'NONE',  ( 4.800567336939824735E-14, -1.683812357199261384E-15, 13.74937131564461801 ) ) ;
#99 = DIRECTION ( 'NONE',  ( 0.0000000000000000000, 1.000000000000000000, 0.0000000000000000000 ) ) ;
#100 = AXIS2_PLACEMENT_3D ( 'NONE', #9, #59, #157 ) ;
#101 = CARTESIAN_POINT ( 'NONE',  ( 4.800567336939824735E-14, 1.999999999999990452, 13.74937131564461801 ) ) ;
#102 = CARTESIAN_POINT ( 'NONE',  ( 2.779219145719134403E-13, 1.999999999999991340, 79.60000000000000853 ) ) ;
#103 = PERSON_AND_ORGANIZATION ( #83, #134 ) ;
#104 = CC_DESIGN_APPROVAL ( #106, ( #38 ) ) ;
#105 = APPROVAL_STATUS ( 'not_yet_approved' ) ;
#106 = APPROVAL ( #105, 'UNSPECIFIED' ) ;
#107 = CIRCLE ( 'NONE', #218, 2.610000000000023856 ) ;
#108 = ORIENTED_EDGE ( 'NONE', *, *, #114, .F. ) ;
#109 = PERSON_AND_ORGANIZATION_ROLE ( 'creator' ) ;
#110 = EDGE_LOOP ( 'NONE', ( #205 ) ) ;
#111 = ORIENTED_EDGE ( 'NONE', *, *, #114, .T. ) ;
#112 = PERSON_AND_ORGANIZATION ( #83, #134 ) ;
#113 = PLANE ( 'NONE',  #46 ) ;
#114 = EDGE_CURVE ( 'NONE', #84, #84, #214, .T. ) ;
#115 = CARTESIAN_POINT ( 'NONE',  ( 2.793185071074506684E-13, 1.199807826129472128E-32, 80.00000000000000000 ) ) ;
#116 = AXIS2_PLACEMENT_3D ( 'NONE', #135, #117, #212 ) ;
#117 = DIRECTION ( 'NONE',  ( -3.491481338843133355E-15, 1.224646799147353207E-16, -1.000000000000000000 ) ) ;
#118 = DIRECTION ( 'NONE',  ( 3.491481338843133355E-15, -1.224646799147353207E-16, 1.000000000000000000 ) ) ;
#119 = DIRECTION ( 'NONE',  ( 4.275831445896958607E-31, 1.000000000000000000, 1.224646799147353207E-16 ) ) ;
#120 = APPROVAL_DATE_TIME ( #177, #106 ) ;
#121 = APPLICATION_PROTOCOL_DEFINITION ( 'international standard', 'config_control_design', 1994, #202 ) ;
#122 = CARTESIAN_POINT ( 'NONE',  ( 4.189777606611760026E-14, 3.010000000000023768, 12.00000000000000000 ) ) ;
#123 = APPLICATION_PROTOCOL_DEFINITION ( 'international standard', 'config_control_design', 1994, #241 ) ;
#124 = CARTESIAN_POINT ( 'NONE',  ( 2.793185071074506684E-13, 1.599999999999991207, 80.00000000000000000 ) ) ;
#125 = ORIENTED_EDGE ( 'NONE', *, *, #193, .T. ) ;
#126 = PRODUCT_DEFINITION_FORMATION_WITH_SPECIFIED_SOURCE ( 'ANY', '', #1, .NOT_KNOWN. ) ;
#127 = ADVANCED_FACE ( 'NONE', ( #39, #4 ), #186, .T. ) ;
#128 = SECURITY_CLASSIFICATION_LEVEL ( 'unclassified' ) ;
#129 = EDGE_LOOP ( 'NONE', ( #125 ) ) ;
#130 =( GEOMETRIC_REPRESENTATION_CONTEXT ( 3 ) GLOBAL_UNCERTAINTY_ASSIGNED_CONTEXT ( ( #32 ) ) GLOBAL_UNIT_ASSIGNED_CONTEXT ( ( #15, #197, #238 ) ) REPRESENTATION_CONTEXT ( 'NONE', 'WORKASPACE' ) );
#131 = FACE_OUTER_BOUND ( 'NONE', #224, .T. ) ;
#132 = CYLINDRICAL_SURFACE ( 'NONE', #63, 1.999999999999996669 ) ;
#133 = CARTESIAN_POINT ( 'NONE',  ( 2.793185071074506684E-13, -9.797174393178826052E-15, 80.00000000000000000 ) ) ;
#134 = ORGANIZATION ( 'UNSPECIFIED', 'UNSPECIFIED', '' ) ;
#135 = CARTESIAN_POINT ( 'NONE',  ( 4.189777606611760026E-14, -1.469576158976823947E-15, 12.00000000000000000 ) ) ;
#136 = CC_DESIGN_PERSON_AND_ORGANIZATION_ASSIGNMENT ( #67, #89, ( #169 ) ) ;
#137 = CARTESIAN_POINT ( 'NONE',  ( 4.189777606611760026E-14, -1.469576158976823947E-15, 12.00000000000000000 ) ) ;
#138 = VERTEX_POINT ( 'NONE', #163 ) ;
#139 = CIRCLE ( 'NONE', #26, 1.999999999999992228 ) ;
#140 = DATE_AND_TIME ( #219, #191 ) ;
#141 = CC_DESIGN_SECURITY_CLASSIFICATION ( #169, ( #126 ) ) ;
#142 = VERTEX_POINT ( 'NONE', #102 ) ;
#143 = VERTEX_POINT ( 'NONE', #122 ) ;
#144 = MANIFOLD_SOLID_BREP ( 'Corps-Déplacer/Copier1[1]', #71 ) ;
#145 = COORDINATED_UNIVERSAL_TIME_OFFSET ( 1, 0, .AHEAD. ) ;
#146 = CONICAL_SURFACE ( 'NONE', #155, 2.610000000000023856, 0.7853981633974504994 ) ;
#147 = ORIENTED_EDGE ( 'NONE', *, *, #151, .T. ) ;
#148 = EDGE_LOOP ( 'NONE', ( #93 ) ) ;
#149 = AXIS2_PLACEMENT_3D ( 'NONE', #137, #74, #229 ) ;
#150 = CONICAL_SURFACE ( 'NONE', #160, 1.600000000000000977, 0.7853981633974512766 ) ;
#151 = EDGE_CURVE ( 'NONE', #138, #138, #107, .T. ) ;
#152 = DIRECTION ( 'NONE',  ( 4.478906847412138926E-31, 1.000000000000000000, 1.260700200564529491E-16 ) ) ;
#153 = FACE_BOUND ( 'NONE', #148, .T. ) ;
#154 = DIRECTION ( 'NONE',  ( 4.275831445896958607E-31, 1.000000000000000000, 1.224646799147353207E-16 ) ) ;
#155 = AXIS2_PLACEMENT_3D ( 'NONE', #228, #118, #11 ) ;
#156 = DIRECTION ( 'NONE',  ( 0.0000000000000000000, 1.000000000000000000, 0.0000000000000000000 ) ) ;
#157 = DIRECTION ( 'NONE',  ( -4.275831445896958607E-31, -1.000000000000000000, -1.224646799147353207E-16 ) ) ;
#158 = ADVANCED_FACE ( 'NONE', ( #174 ), #113, .T. ) ;
#159 = MECHANICAL_CONTEXT ( 'NONE', #202, 'mechanical' ) ;
#160 = AXIS2_PLACEMENT_3D ( 'NONE', #133, #94, #60 ) ;
#161 = PERSON_AND_ORGANIZATION ( #83, #134 ) ;
#162 = COORDINATED_UNIVERSAL_TIME_OFFSET ( 1, 0, .AHEAD. ) ;
#163 = CARTESIAN_POINT ( 'NONE',  ( 0.0000000000000000000, 2.610000000000023856, 0.0000000000000000000 ) ) ;
#164 = ADVANCED_FACE ( 'NONE', ( #23, #153 ), #146, .T. ) ;
#165 = APPROVAL_STATUS ( 'not_yet_approved' ) ;
#166 = EDGE_LOOP ( 'NONE', ( #68 ) ) ;
#167 = EDGE_LOOP ( 'NONE', ( #108 ) ) ;
#168 = FACE_OUTER_BOUND ( 'NONE', #36, .T. ) ;
#169 = SECURITY_CLASSIFICATION ( '', '', #128 ) ;
#170 = DIRECTION ( 'NONE',  ( -3.491481338843133355E-15, 1.224646799147353207E-16, -1.000000000000000000 ) ) ;
#171 = ADVANCED_FACE ( 'NONE', ( #168 ), #73, .T. ) ;
#172 = DIRECTION ( 'NONE',  ( -3.491481338843133355E-15, 1.224646799147353207E-16, -1.000000000000000000 ) ) ;
#173 = AXIS2_PLACEMENT_3D ( 'NONE', #57, #189, #209 ) ;
#174 = FACE_OUTER_BOUND ( 'NONE', #70, .T. ) ;
#175 = DESIGN_CONTEXT ( 'detailed design', #241, 'design' ) ;
#176 = VERTEX_POINT ( 'NONE', #124 ) ;
#177 = DATE_AND_TIME ( #81, #210 ) ;
#178 = CC_DESIGN_DATE_AND_TIME_ASSIGNMENT ( #204, #18, ( #169 ) ) ;
#179 = APPROVAL_DATE_TIME ( #180, #233 ) ;
#180 = DATE_AND_TIME ( #69, #6 ) ;
#181 = EDGE_LOOP ( 'NONE', ( #19 ) ) ;
#182 = EDGE_LOOP ( 'NONE', ( #111 ) ) ;
#183 = AXIS2_PLACEMENT_3D ( 'NONE', #188, #43, #99 ) ;
#184 = DIRECTION ( 'NONE',  ( -3.491481338843133355E-15, 1.224646799147353207E-16, -1.000000000000000000 ) ) ;
#185 = FACE_OUTER_BOUND ( 'NONE', #181, .T. ) ;
#186 = CONICAL_SURFACE ( 'NONE', #183, 3.010000000000025100, 0.5235987755983002589 ) ;
#187 = CC_DESIGN_DATE_AND_TIME_ASSIGNMENT ( #192, #235, ( #38 ) ) ;
#188 = CARTESIAN_POINT ( 'NONE',  ( 4.189777606611760026E-14, -1.469576158976823947E-15, 12.00000000000000000 ) ) ;
#189 = DIRECTION ( 'NONE',  ( 3.491481338843133355E-15, -1.224646799147353207E-16, 1.000000000000000000 ) ) ;
#190 = DIRECTION ( 'NONE',  ( -3.491481338843133355E-15, 1.224646799147353207E-16, -1.000000000000000000 ) ) ;
#191 = LOCAL_TIME ( 13, 58, 16.00000000000000000, #145 ) ;
#192 = DATE_AND_TIME ( #239, #242 ) ;
#193 = EDGE_CURVE ( 'NONE', #194, #194, #5, .T. ) ;
#194 = VERTEX_POINT ( 'NONE', #217 ) ;
#195 = CIRCLE ( 'NONE', #221, 1.600000000000000977 ) ;
#196 = PERSON_AND_ORGANIZATION ( #83, #134 ) ;
#197 =( NAMED_UNIT ( * ) PLANE_ANGLE_UNIT ( ) SI_UNIT ( $, .RADIAN. ) );
#198 = EDGE_CURVE ( 'NONE', #48, #48, #139, .T. ) ;
#199 = AXIS2_PLACEMENT_3D ( 'NONE', #232, #227, #97 ) ;
#200 = ORIENTED_EDGE ( 'NONE', *, *, #17, .T. ) ;
#201 = PERSON_AND_ORGANIZATION ( #83, #134 ) ;
#202 = APPLICATION_CONTEXT ( 'configuration controlled 3d designs of mechanical parts and assemblies' ) ;
#203 = EDGE_LOOP ( 'NONE', ( #22 ) ) ;
#204 = DATE_AND_TIME ( #87, #82 ) ;
#205 = ORIENTED_EDGE ( 'NONE', *, *, #17, .F. ) ;
#206 = PRODUCT_DEFINITION_SHAPE ( 'NONE', 'NONE',  #38 ) ;
#207 = DIRECTION ( 'NONE',  ( 4.275831445896958607E-31, 1.000000000000000000, 1.224646799147353207E-16 ) ) ;
#208 = CARTESIAN_POINT ( 'NONE',  ( 2.793185071074506684E-13, -9.797174393178826052E-15, 80.00000000000000000 ) ) ;
#209 = DIRECTION ( 'NONE',  ( -4.275831445896958607E-31, -1.000000000000000000, -1.224646799147353207E-16 ) ) ;
#210 = LOCAL_TIME ( 13, 58, 16.00000000000000000, #85 ) ;
#211 = DIRECTION ( 'NONE',  ( 0.0000000000000000000, 1.000000000000000000, 0.0000000000000000000 ) ) ;
#212 = DIRECTION ( 'NONE',  ( 0.0000000000000000000, 1.000000000000000000, 0.0000000000000000000 ) ) ;
#213 = APPROVAL_ROLE ( '' ) ;
#214 = CIRCLE ( 'NONE', #116, 3.010000000000025100 ) ;
#215 = APPROVAL_DATE_TIME ( #140, #10 ) ;
#216 = EDGE_CURVE ( 'NONE', #142, #142, #77, .T. ) ;
#217 = CARTESIAN_POINT ( 'NONE',  ( 1.396592535537252553E-15, 3.010000000000025100, 0.3999999999999997446 ) ) ;
#218 = AXIS2_PLACEMENT_3D ( 'NONE', #96, #170, #154 ) ;
#219 = CALENDAR_DATE ( 2021, 2, 12 ) ;
#220 = MANIFOLD_SOLID_BREP ( 'Corps-Déplacer/Copier1[2]', #21 ) ;
#221 = AXIS2_PLACEMENT_3D ( 'NONE', #208, #76, #211 ) ;
#222 = ORIENTED_EDGE ( 'NONE', *, *, #216, .T. ) ;
#223 = SHAPE_DEFINITION_REPRESENTATION ( #206, #12 ) ;
#224 = EDGE_LOOP ( 'NONE', ( #53 ) ) ;
#225 = AXIS2_PLACEMENT_3D ( 'NONE', #115, #190, #29 ) ;
#226 = CC_DESIGN_PERSON_AND_ORGANIZATION_ASSIGNMENT ( #112, #88, ( #126 ) ) ;
#227 = DIRECTION ( 'NONE',  ( -3.491481338843133355E-15, 1.224646799147353207E-16, -1.000000000000000000 ) ) ;
#228 = CARTESIAN_POINT ( 'NONE',  ( -1.115992007379116445E-30, 3.914373032747484593E-32, -3.196328145774621031E-16 ) ) ;
#229 = DIRECTION ( 'NONE',  ( 0.0000000000000000000, 1.000000000000000000, 0.0000000000000000000 ) ) ;
#230 = AXIS2_PLACEMENT_3D ( 'NONE', #40, #25, #207 ) ;
#231 = APPROVAL_PERSON_ORGANIZATION ( #20, #233, #35 ) ;
#232 = CARTESIAN_POINT ( 'NONE',  ( 2.779219145719134403E-13, -9.748188521212932624E-15, 79.60000000000000853 ) ) ;
#233 = APPROVAL ( #165, 'UNSPECIFIED' ) ;
#234 = PLANE ( 'NONE',  #225 ) ;
#235 = DATE_TIME_ROLE ( 'creation_date' ) ;
#236 = ADVANCED_FACE ( 'NONE', ( #56, #41 ), #132, .T. ) ;
#237 = CARTESIAN_POINT ( 'NONE',  ( 4.189777606611760026E-14, 3.010000000000023768, 12.00000000000000000 ) ) ;
#238 =( NAMED_UNIT ( * ) SI_UNIT ( $, .STERADIAN. ) SOLID_ANGLE_UNIT ( ) );
#239 = CALENDAR_DATE ( 2021, 2, 12 ) ;
#240 = EDGE_LOOP ( 'NONE', ( #222 ) ) ;
#241 = APPLICATION_CONTEXT ( 'configuration controlled 3d designs of mechanical parts and assemblies' ) ;
#242 = LOCAL_TIME ( 13, 58, 16.00000000000000000, #162 ) ;
#243 = ORIENTED_EDGE ( 'NONE', *, *, #92, .F. ) ;
ENDSEC;
END-ISO-10303-21;
