ISO-10303-21;
HEADER;
FILE_DESCRIPTION (( 'STEP AP203' ),
    '1' );
FILE_NAME ('321827.step',
    '2021-12-02T12:58:15',
    ( '' ),
    ( '' ),
    'SwSTEP 2.0',
    'SolidWorks 2019',
    '' );
FILE_SCHEMA (( 'CONFIG_CONTROL_DESIGN' ));
ENDSEC;

DATA;
#1 = AXIS2_PLACEMENT_3D ( 'NONE', #30, #89, #165 ) ;
#2 = CLOSED_SHELL ( 'NONE', ( #113, #80, #17, #21 ) ) ;
#3 = ORIENTED_EDGE ( 'NONE', *, *, #27, .T. ) ;
#4 = CIRCLE ( 'NONE', #225, 2.605000000000023519 ) ;
#5 = SECURITY_CLASSIFICATION_LEVEL ( 'unclassified' ) ;
#6 = EDGE_LOOP ( 'NONE', ( #120 ) ) ;
#7 = APPROVAL ( #222, 'UNSPECIFIED' ) ;
#8 = DIRECTION ( 'NONE',  ( 0.0000000000000000000, 1.000000000000000000, 0.0000000000000000000 ) ) ;
#9 = CC_DESIGN_PERSON_AND_ORGANIZATION_ASSIGNMENT ( #81, #22, ( #75 ) ) ;
#10 = DIRECTION ( 'NONE',  ( 3.491481338843133355E-15, -1.224646799147353207E-16, 1.000000000000000000 ) ) ;
#11 = CONICAL_SURFACE ( 'NONE', #153, 3.005000000000025207, 0.5235987755983003700 ) ;
#12 = DIRECTION ( 'NONE',  ( -4.275831445896958607E-31, -1.000000000000000000, -1.224646799147353207E-16 ) ) ;
#13 = DIRECTION ( 'NONE',  ( -3.491481338843133355E-15, 1.224646799147353207E-16, -1.000000000000000000 ) ) ;
#14 = DIRECTION ( 'NONE',  ( 4.275831445896958607E-31, 1.000000000000000000, 1.224646799147353207E-16 ) ) ;
#15 = CC_DESIGN_DATE_AND_TIME_ASSIGNMENT ( #192, #228, ( #152 ) ) ;
#16 = PERSON_AND_ORGANIZATION ( #88, #33 ) ;
#17 = ADVANCED_FACE ( 'NONE', ( #229 ), #43, .T. ) ;
#18 = VERTEX_POINT ( 'NONE', #173 ) ;
#19 = DIRECTION ( 'NONE',  ( 1.000000000000000000, 0.0000000000000000000, 0.0000000000000000000 ) ) ;
#20 = SHAPE_DEFINITION_REPRESENTATION ( #156, #238 ) ;
#21 = ADVANCED_FACE ( 'NONE', ( #164, #216 ), #114, .T. ) ;
#22 = PERSON_AND_ORGANIZATION_ROLE ( 'design_supplier' ) ;
#23 = ORIENTED_EDGE ( 'NONE', *, *, #101, .T. ) ;
#24 = DIRECTION ( 'NONE',  ( -3.491481338843133355E-15, 1.224646799147353207E-16, -1.000000000000000000 ) ) ;
#25 = APPROVAL ( #97, 'UNSPECIFIED' ) ;
#26 = PRODUCT ( '321827', '321827', '', ( #145 ) ) ;
#27 = EDGE_CURVE ( 'NONE', #18, #18, #50, .T. ) ;
#28 = CARTESIAN_POINT ( 'NONE',  ( 4.189777606611760026E-14, 2.253389073449458052E-32, 12.00000000000000000 ) ) ;
#29 = AXIS2_PLACEMENT_3D ( 'NONE', #217, #128, #125 ) ;
#30 = CARTESIAN_POINT ( 'NONE',  ( 1.396592535537251173E-15, -4.898587196589405063E-17, 0.3999999999999993561 ) ) ;
#31 = CARTESIAN_POINT ( 'NONE',  ( 2.793185071074506684E-13, -9.797174393178826052E-15, 80.00000000000000000 ) ) ;
#32 = DATE_AND_TIME ( #151, #44 ) ;
#33 = ORGANIZATION ( 'UNSPECIFIED', 'UNSPECIFIED', '' ) ;
#34 = VERTEX_POINT ( 'NONE', #149 ) ;
#35 = APPLICATION_PROTOCOL_DEFINITION ( 'international standard', 'config_control_design', 1994, #73 ) ;
#36 = VERTEX_POINT ( 'NONE', #99 ) ;
#37 = VERTEX_POINT ( 'NONE', #76 ) ;
#38 = EDGE_LOOP ( 'NONE', ( #174 ) ) ;
#39 = CIRCLE ( 'NONE', #147, 1.999999999999992228 ) ;
#40 = EDGE_LOOP ( 'NONE', ( #211 ) ) ;
#41 = CIRCLE ( 'NONE', #1, 3.005000000000025207 ) ;
#42 = ORIENTED_EDGE ( 'NONE', *, *, #90, .T. ) ;
#43 = PLANE ( 'NONE',  #210 ) ;
#44 = LOCAL_TIME ( 13, 58, 15.00000000000000000, #112 ) ;
#45 = FACE_OUTER_BOUND ( 'NONE', #38, .T. ) ;
#46 = PRODUCT_RELATED_PRODUCT_CATEGORY ( 'detail', '', ( #26 ) ) ;
#47 = DESIGN_CONTEXT ( 'detailed design', #73, 'design' ) ;
#48 = DIRECTION ( 'NONE',  ( 4.275831445896958607E-31, 1.000000000000000000, 1.224646799147353207E-16 ) ) ;
#49 = DIRECTION ( 'NONE',  ( 0.0000000000000000000, 1.000000000000000000, 0.0000000000000000000 ) ) ;
#50 = CIRCLE ( 'NONE', #196, 1.600000000000000977 ) ;
#51 = APPROVAL ( #158, 'UNSPECIFIED' ) ;
#52 = DIRECTION ( 'NONE',  ( -4.275831445896958607E-31, -1.000000000000000000, -1.224646799147353207E-16 ) ) ;
#53 = PRODUCT_DEFINITION ( 'UNKNOWN', '', #75, #47 ) ;
#54 = FACE_OUTER_BOUND ( 'NONE', #63, .T. ) ;
#55 = DATE_AND_TIME ( #74, #233 ) ;
#56 = PERSON_AND_ORGANIZATION ( #88, #33 ) ;
#57 = CC_DESIGN_DATE_AND_TIME_ASSIGNMENT ( #204, #111, ( #53 ) ) ;
#58 = APPROVAL_ROLE ( '' ) ;
#59 = CARTESIAN_POINT ( 'NONE',  ( 1.396592535537252553E-15, 3.005000000000025207, 0.3999999999999997446 ) ) ;
#60 = COORDINATED_UNIVERSAL_TIME_OFFSET ( 1, 0, .AHEAD. ) ;
#61 = APPLICATION_CONTEXT ( 'configuration controlled 3d designs of mechanical parts and assemblies' ) ;
#62 = MANIFOLD_SOLID_BREP ( 'Corps-Déplacer/Copier1[2]', #2 ) ;
#63 = EDGE_LOOP ( 'NONE', ( #132 ) ) ;
#64 = AXIS2_PLACEMENT_3D ( 'NONE', #172, #190, #77 ) ;
#65 = PLANE ( 'NONE',  #148 ) ;
#66 = CIRCLE ( 'NONE', #239, 2.000000000000000888 ) ;
#67 = CARTESIAN_POINT ( 'NONE',  ( 0.0000000000000000000, 0.0000000000000000000, 0.0000000000000000000 ) ) ;
#68 = FACE_OUTER_BOUND ( 'NONE', #40, .T. ) ;
#69 = CYLINDRICAL_SURFACE ( 'NONE', #29, 3.005000000000025207 ) ;
#70 = ADVANCED_FACE ( 'NONE', ( #139, #72 ), #11, .T. ) ;
#71 = CIRCLE ( 'NONE', #64, 3.005000000000025207 ) ;
#72 = FACE_OUTER_BOUND ( 'NONE', #103, .T. ) ;
#73 = APPLICATION_CONTEXT ( 'configuration controlled 3d designs of mechanical parts and assemblies' ) ;
#74 = CALENDAR_DATE ( 2021, 2, 12 ) ;
#75 = PRODUCT_DEFINITION_FORMATION_WITH_SPECIFIED_SOURCE ( 'ANY', '', #26, .NOT_KNOWN. ) ;
#76 = CARTESIAN_POINT ( 'NONE',  ( 0.0000000000000000000, 2.605000000000023519, 0.0000000000000000000 ) ) ;
#77 = DIRECTION ( 'NONE',  ( 0.0000000000000000000, 1.000000000000000000, 0.0000000000000000000 ) ) ;
#78 = CC_DESIGN_APPROVAL ( #51, ( #152 ) ) ;
#79 = ORIENTED_EDGE ( 'NONE', *, *, #163, .F. ) ;
#80 = ADVANCED_FACE ( 'NONE', ( #54 ), #185, .T. ) ;
#81 = PERSON_AND_ORGANIZATION ( #88, #33 ) ;
#82 = DATE_AND_TIME ( #157, #134 ) ;
#83 = UNCERTAINTY_MEASURE_WITH_UNIT (LENGTH_MEASURE( 1.000000000000000082E-05 ), #187, 'distance_accuracy_value', 'NONE');
#84 = APPROVAL_DATE_TIME ( #82, #51 ) ;
#85 = EDGE_LOOP ( 'NONE', ( #23 ) ) ;
#86 = CARTESIAN_POINT ( 'NONE',  ( 4.797543625403546600E-14, -1.682751781960536340E-15, 13.74071106160677225 ) ) ;
#87 = FACE_OUTER_BOUND ( 'NONE', #231, .T. ) ;
#88 = PERSON ( 'UNSPECIFIED', 'UNSPECIFIED', 'UNSPECIFIED', ('UNSPECIFIED'), ('UNSPECIFIED'), ('UNSPECIFIED') ) ;
#89 = DIRECTION ( 'NONE',  ( -3.491481338843133355E-15, 1.224646799147353207E-16, -1.000000000000000000 ) ) ;
#90 = EDGE_CURVE ( 'NONE', #36, #36, #66, .T. ) ;
#91 = CARTESIAN_POINT ( 'NONE',  ( -5.569270458280838992E-31, 1.953437116917087078E-32, -1.595102455889441831E-16 ) ) ;
#92 = PLANE ( 'NONE',  #206 ) ;
#93 = CIRCLE ( 'NONE', #121, 3.005000000000025207 ) ;
#94 =( GEOMETRIC_REPRESENTATION_CONTEXT ( 3 ) GLOBAL_UNCERTAINTY_ASSIGNED_CONTEXT ( ( #83 ) ) GLOBAL_UNIT_ASSIGNED_CONTEXT ( ( #187, #208, #202 ) ) REPRESENTATION_CONTEXT ( 'NONE', 'WORKASPACE' ) );
#95 = APPROVAL_DATE_TIME ( #32, #7 ) ;
#96 = PERSON_AND_ORGANIZATION ( #88, #33 ) ;
#97 = APPROVAL_STATUS ( 'not_yet_approved' ) ;
#98 = APPROVAL_PERSON_ORGANIZATION ( #176, #51, #135 ) ;
#99 = CARTESIAN_POINT ( 'NONE',  ( 2.779219145719134403E-13, 1.999999999999991340, 79.60000000000000853 ) ) ;
#100 = LOCAL_TIME ( 13, 58, 15.00000000000000000, #220 ) ;
#101 = EDGE_CURVE ( 'NONE', #221, #221, #93, .T. ) ;
#102 = COORDINATED_UNIVERSAL_TIME_OFFSET ( 1, 0, .AHEAD. ) ;
#103 = EDGE_LOOP ( 'NONE', ( #194 ) ) ;
#104 = EDGE_LOOP ( 'NONE', ( #3 ) ) ;
#105 = DIRECTION ( 'NONE',  ( 0.0000000000000000000, 1.000000000000000000, 0.0000000000000000000 ) ) ;
#106 = DIRECTION ( 'NONE',  ( -3.491481338843133355E-15, 1.224646799147353207E-16, -1.000000000000000000 ) ) ;
#107 = LOCAL_TIME ( 13, 58, 15.00000000000000000, #102 ) ;
#108 = CARTESIAN_POINT ( 'NONE',  ( 2.779219145719134403E-13, -9.748188521212932624E-15, 79.60000000000000853 ) ) ;
#109 = DIRECTION ( 'NONE',  ( 0.0000000000000000000, 1.000000000000000000, 0.0000000000000000000 ) ) ;
#110 = DIRECTION ( 'NONE',  ( -4.275831445896958607E-31, -1.000000000000000000, -1.224646799147353207E-16 ) ) ;
#111 = DATE_TIME_ROLE ( 'creation_date' ) ;
#112 = COORDINATED_UNIVERSAL_TIME_OFFSET ( 1, 0, .AHEAD. ) ;
#113 = ADVANCED_FACE ( 'NONE', ( #237, #68 ), #69, .T. ) ;
#114 = CONICAL_SURFACE ( 'NONE', #123, 2.605000000000023519, 0.7853981633974504994 ) ;
#115 = CARTESIAN_POINT ( 'NONE',  ( 4.189777606611760026E-14, 3.005000000000023874, 12.00000000000000000 ) ) ;
#116 = ADVANCED_FACE ( 'NONE', ( #232 ), #65, .F. ) ;
#117 = EDGE_LOOP ( 'NONE', ( #136 ) ) ;
#118 = PERSON_AND_ORGANIZATION ( #88, #33 ) ;
#119 = PERSON_AND_ORGANIZATION_ROLE ( 'classification_officer' ) ;
#120 = ORIENTED_EDGE ( 'NONE', *, *, #90, .F. ) ;
#121 = AXIS2_PLACEMENT_3D ( 'NONE', #181, #13, #105 ) ;
#122 = CC_DESIGN_SECURITY_CLASSIFICATION ( #152, ( #75 ) ) ;
#123 = AXIS2_PLACEMENT_3D ( 'NONE', #240, #162, #52 ) ;
#124 = DIRECTION ( 'NONE',  ( -3.491481338843133355E-15, 1.224646799147353207E-16, -1.000000000000000000 ) ) ;
#125 = DIRECTION ( 'NONE',  ( 4.275831445896958607E-31, 1.000000000000000000, 1.224646799147353207E-16 ) ) ;
#126 = DIRECTION ( 'NONE',  ( -3.491481338843133355E-15, 1.224646799147353207E-16, -1.000000000000000000 ) ) ;
#127 = DIRECTION ( 'NONE',  ( 3.491481338843133355E-15, -1.224646799147353207E-16, 1.000000000000000000 ) ) ;
#128 = DIRECTION ( 'NONE',  ( -3.491481338843133355E-15, 1.224646799147353207E-16, -1.000000000000000000 ) ) ;
#129 = VERTEX_POINT ( 'NONE', #59 ) ;
#130 = VERTEX_POINT ( 'NONE', #115 ) ;
#131 = PERSON_AND_ORGANIZATION ( #88, #33 ) ;
#132 = ORIENTED_EDGE ( 'NONE', *, *, #101, .F. ) ;
#133 = EDGE_LOOP ( 'NONE', ( #195 ) ) ;
#134 = LOCAL_TIME ( 13, 58, 15.00000000000000000, #60 ) ;
#135 = APPROVAL_ROLE ( '' ) ;
#136 = ORIENTED_EDGE ( 'NONE', *, *, #27, .F. ) ;
#137 = MANIFOLD_SOLID_BREP ( 'Corps-Déplacer/Copier1[1]', #140 ) ;
#138 = EDGE_LOOP ( 'NONE', ( #79 ) ) ;
#139 = FACE_BOUND ( 'NONE', #161, .T. ) ;
#140 = CLOSED_SHELL ( 'NONE', ( #160, #70, #235, #193, #116 ) ) ;
#141 = DIRECTION ( 'NONE',  ( 0.0000000000000000000, 1.000000000000000000, 0.0000000000000000000 ) ) ;
#142 = DIRECTION ( 'NONE',  ( -3.491481338843133355E-15, 1.224646799147353207E-16, -1.000000000000000000 ) ) ;
#143 = CARTESIAN_POINT ( 'NONE',  ( 2.793185071074506684E-13, 1.199807826129472128E-32, 80.00000000000000000 ) ) ;
#144 = FACE_OUTER_BOUND ( 'NONE', #179, .T. ) ;
#145 = MECHANICAL_CONTEXT ( 'NONE', #61, 'mechanical' ) ;
#146 = COORDINATED_UNIVERSAL_TIME_OFFSET ( 1, 0, .AHEAD. ) ;
#147 = AXIS2_PLACEMENT_3D ( 'NONE', #86, #215, #49 ) ;
#148 = AXIS2_PLACEMENT_3D ( 'NONE', #143, #218, #198 ) ;
#149 = CARTESIAN_POINT ( 'NONE',  ( 4.797543625403546600E-14, 1.999999999999990452, 13.74071106160677225 ) ) ;
#150 = CARTESIAN_POINT ( 'NONE',  ( 4.189777606611760026E-14, 3.005000000000023874, 12.00000000000000000 ) ) ;
#151 = CALENDAR_DATE ( 2021, 2, 12 ) ;
#152 = SECURITY_CLASSIFICATION ( '', '', #5 ) ;
#153 = AXIS2_PLACEMENT_3D ( 'NONE', #236, #106, #166 ) ;
#154 = CALENDAR_DATE ( 2021, 2, 12 ) ;
#155 = ORIENTED_EDGE ( 'NONE', *, *, #243, .T. ) ;
#156 = PRODUCT_DEFINITION_SHAPE ( 'NONE', 'NONE',  #53 ) ;
#157 = CALENDAR_DATE ( 2021, 2, 12 ) ;
#158 = APPROVAL_STATUS ( 'not_yet_approved' ) ;
#159 = CC_DESIGN_PERSON_AND_ORGANIZATION_ASSIGNMENT ( #118, #178, ( #75 ) ) ;
#160 = ADVANCED_FACE ( 'NONE', ( #144 ), #92, .F. ) ;
#161 = EDGE_LOOP ( 'NONE', ( #213 ) ) ;
#162 = DIRECTION ( 'NONE',  ( 3.491481338843133355E-15, -1.224646799147353207E-16, 1.000000000000000000 ) ) ;
#163 = EDGE_CURVE ( 'NONE', #37, #37, #4, .T. ) ;
#164 = FACE_OUTER_BOUND ( 'NONE', #177, .T. ) ;
#165 = DIRECTION ( 'NONE',  ( 4.486359271451093958E-31, 1.000000000000000000, 1.262797871447332291E-16 ) ) ;
#166 = DIRECTION ( 'NONE',  ( 0.0000000000000000000, 1.000000000000000000, 0.0000000000000000000 ) ) ;
#167 = FACE_OUTER_BOUND ( 'NONE', #6, .T. ) ;
#168 = CC_DESIGN_PERSON_AND_ORGANIZATION_ASSIGNMENT ( #96, #189, ( #53 ) ) ;
#169 = CALENDAR_DATE ( 2021, 2, 12 ) ;
#170 = APPLICATION_PROTOCOL_DEFINITION ( 'international standard', 'config_control_design', 1994, #61 ) ;
#171 = CONICAL_SURFACE ( 'NONE', #183, 1.600000000000000977, 0.7853981633974512766 ) ;
#172 = CARTESIAN_POINT ( 'NONE',  ( 4.189777606611760026E-14, -1.469576158976823947E-15, 12.00000000000000000 ) ) ;
#173 = CARTESIAN_POINT ( 'NONE',  ( 2.793185071074506684E-13, 1.599999999999991207, 80.00000000000000000 ) ) ;
#174 = ORIENTED_EDGE ( 'NONE', *, *, #205, .F. ) ;
#175 = AXIS2_PLACEMENT_3D ( 'NONE', #28, #127, #110 ) ;
#176 = PERSON_AND_ORGANIZATION ( #88, #33 ) ;
#177 = EDGE_LOOP ( 'NONE', ( #227 ) ) ;
#178 = PERSON_AND_ORGANIZATION_ROLE ( 'creator' ) ;
#179 = EDGE_LOOP ( 'NONE', ( #155 ) ) ;
#180 = DIRECTION ( 'NONE',  ( -3.491481338843133355E-15, 1.224646799147353207E-16, -1.000000000000000000 ) ) ;
#181 = CARTESIAN_POINT ( 'NONE',  ( 4.189777606611760026E-14, -1.469576158976823947E-15, 12.00000000000000000 ) ) ;
#182 = AXIS2_PLACEMENT_3D ( 'NONE', #191, #207, #19 ) ;
#183 = AXIS2_PLACEMENT_3D ( 'NONE', #219, #180, #8 ) ;
#184 = CARTESIAN_POINT ( 'NONE',  ( 4.189777606611760026E-14, 2.253389073449458052E-32, 12.00000000000000000 ) ) ;
#185 = PLANE ( 'NONE',  #175 ) ;
#186 = CARTESIAN_POINT ( 'NONE',  ( -1.113854091656167798E-30, 3.906874233834174156E-32, -3.190204911778883663E-16 ) ) ;
#187 =( LENGTH_UNIT ( ) NAMED_UNIT ( * ) SI_UNIT ( .MILLI., .METRE. ) );
#188 = PERSON_AND_ORGANIZATION ( #88, #33 ) ;
#189 = PERSON_AND_ORGANIZATION_ROLE ( 'creator' ) ;
#190 = DIRECTION ( 'NONE',  ( -3.491481338843133355E-15, 1.224646799147353207E-16, -1.000000000000000000 ) ) ;
#191 = CARTESIAN_POINT ( 'NONE',  ( 0.0000000000000000000, 0.0000000000000000000, 0.0000000000000000000 ) ) ;
#192 = DATE_AND_TIME ( #154, #107 ) ;
#193 = ADVANCED_FACE ( 'NONE', ( #167, #197 ), #171, .T. ) ;
#194 = ORIENTED_EDGE ( 'NONE', *, *, #243, .F. ) ;
#195 = ORIENTED_EDGE ( 'NONE', *, *, #163, .T. ) ;
#196 = AXIS2_PLACEMENT_3D ( 'NONE', #31, #201, #109 ) ;
#197 = FACE_BOUND ( 'NONE', #104, .T. ) ;
#198 = DIRECTION ( 'NONE',  ( 4.275831445896958607E-31, 1.000000000000000000, 1.224646799147353207E-16 ) ) ;
#199 = DIRECTION ( 'NONE',  ( 4.275831445896958607E-31, 1.000000000000000000, 1.224646799147353207E-16 ) ) ;
#200 = EDGE_CURVE ( 'NONE', #129, #129, #41, .T. ) ;
#201 = DIRECTION ( 'NONE',  ( -3.491481338843133355E-15, 1.224646799147353207E-16, -1.000000000000000000 ) ) ;
#202 =( NAMED_UNIT ( * ) SI_UNIT ( $, .STERADIAN. ) SOLID_ANGLE_UNIT ( ) );
#203 = AXIS2_PLACEMENT_3D ( 'NONE', #67, #126, #199 ) ;
#204 = DATE_AND_TIME ( #169, #100 ) ;
#205 = EDGE_CURVE ( 'NONE', #34, #34, #39, .T. ) ;
#206 = AXIS2_PLACEMENT_3D ( 'NONE', #184, #10, #12 ) ;
#207 = DIRECTION ( 'NONE',  ( 0.0000000000000000000, 0.0000000000000000000, 1.000000000000000000 ) ) ;
#208 =( NAMED_UNIT ( * ) PLANE_ANGLE_UNIT ( ) SI_UNIT ( $, .RADIAN. ) );
#209 = APPROVAL_PERSON_ORGANIZATION ( #56, #7, #58 ) ;
#210 = AXIS2_PLACEMENT_3D ( 'NONE', #91, #142, #48 ) ;
#211 = ORIENTED_EDGE ( 'NONE', *, *, #200, .F. ) ;
#212 = CC_DESIGN_PERSON_AND_ORGANIZATION_ASSIGNMENT ( #131, #119, ( #152 ) ) ;
#213 = ORIENTED_EDGE ( 'NONE', *, *, #205, .T. ) ;
#214 = APPROVAL_PERSON_ORGANIZATION ( #188, #25, #241 ) ;
#215 = DIRECTION ( 'NONE',  ( -3.491481338843133355E-15, 1.224646799147353207E-16, -1.000000000000000000 ) ) ;
#216 = FACE_BOUND ( 'NONE', #138, .T. ) ;
#217 = CARTESIAN_POINT ( 'NONE',  ( 0.0000000000000000000, 0.0000000000000000000, 0.0000000000000000000 ) ) ;
#218 = DIRECTION ( 'NONE',  ( -3.491481338843133355E-15, 1.224646799147353207E-16, -1.000000000000000000 ) ) ;
#219 = CARTESIAN_POINT ( 'NONE',  ( 2.793185071074506684E-13, -9.797174393178826052E-15, 80.00000000000000000 ) ) ;
#220 = COORDINATED_UNIVERSAL_TIME_OFFSET ( 1, 0, .AHEAD. ) ;
#221 = VERTEX_POINT ( 'NONE', #150 ) ;
#222 = APPROVAL_STATUS ( 'not_yet_approved' ) ;
#223 = CC_DESIGN_PERSON_AND_ORGANIZATION_ASSIGNMENT ( #16, #224, ( #26 ) ) ;
#224 = PERSON_AND_ORGANIZATION_ROLE ( 'design_owner' ) ;
#225 = AXIS2_PLACEMENT_3D ( 'NONE', #186, #24, #14 ) ;
#226 = CC_DESIGN_APPROVAL ( #25, ( #75 ) ) ;
#227 = ORIENTED_EDGE ( 'NONE', *, *, #200, .T. ) ;
#228 = DATE_TIME_ROLE ( 'classification_date' ) ;
#229 = FACE_OUTER_BOUND ( 'NONE', #133, .T. ) ;
#230 = CC_DESIGN_APPROVAL ( #7, ( #53 ) ) ;
#231 = EDGE_LOOP ( 'NONE', ( #42 ) ) ;
#232 = FACE_OUTER_BOUND ( 'NONE', #117, .T. ) ;
#233 = LOCAL_TIME ( 13, 58, 15.00000000000000000, #146 ) ;
#234 = CYLINDRICAL_SURFACE ( 'NONE', #203, 1.999999999999996669 ) ;
#235 = ADVANCED_FACE ( 'NONE', ( #45, #87 ), #234, .T. ) ;
#236 = CARTESIAN_POINT ( 'NONE',  ( 4.189777606611760026E-14, -1.469576158976823947E-15, 12.00000000000000000 ) ) ;
#237 = FACE_OUTER_BOUND ( 'NONE', #85, .T. ) ;
#238 = ADVANCED_BREP_SHAPE_REPRESENTATION ( '321827', ( #137, #62, #182 ), #94 ) ;
#239 = AXIS2_PLACEMENT_3D ( 'NONE', #108, #124, #141 ) ;
#240 = CARTESIAN_POINT ( 'NONE',  ( -1.113854091656167798E-30, 3.906874233834174156E-32, -3.190204911778883663E-16 ) ) ;
#241 = APPROVAL_ROLE ( '' ) ;
#242 = APPROVAL_DATE_TIME ( #55, #25 ) ;
#243 = EDGE_CURVE ( 'NONE', #130, #130, #71, .T. ) ;
ENDSEC;
END-ISO-10303-21;
