ISO-10303-21;
HEADER;
FILE_DESCRIPTION (( 'STEP AP203' ),
    '1' );
FILE_NAME ('321826.step',
    '2021-12-02T12:58:14',
    ( '' ),
    ( '' ),
    'SwSTEP 2.0',
    'SolidWorks 2019',
    '' );
FILE_SCHEMA (( 'CONFIG_CONTROL_DESIGN' ));
ENDSEC;

DATA;
#1 = ORIENTED_EDGE ( 'NONE', *, *, #90, .T. ) ;
#2 = CARTESIAN_POINT ( 'NONE',  ( 4.189777606611760026E-14, -1.469576158976823947E-15, 12.00000000000000000 ) ) ;
#3 = DIRECTION ( 'NONE',  ( 0.0000000000000000000, 1.000000000000000000, 0.0000000000000000000 ) ) ;
#4 = VERTEX_POINT ( 'NONE', #43 ) ;
#5 = APPLICATION_PROTOCOL_DEFINITION ( 'international standard', 'config_control_design', 1994, #217 ) ;
#6 = UNCERTAINTY_MEASURE_WITH_UNIT (LENGTH_MEASURE( 1.000000000000000082E-05 ), #22, 'distance_accuracy_value', 'NONE');
#7 = AXIS2_PLACEMENT_3D ( 'NONE', #75, #158, #57 ) ;
#8 = APPROVAL_STATUS ( 'not_yet_approved' ) ;
#9 = VERTEX_POINT ( 'NONE', #61 ) ;
#10 = PERSON ( 'UNSPECIFIED', 'UNSPECIFIED', 'UNSPECIFIED', ('UNSPECIFIED'), ('UNSPECIFIED'), ('UNSPECIFIED') ) ;
#11 = ADVANCED_FACE ( 'NONE', ( #145, #121 ), #13, .T. ) ;
#12 = CLOSED_SHELL ( 'NONE', ( #202, #212, #24, #11, #69 ) ) ;
#13 = CONICAL_SURFACE ( 'NONE', #220, 1.600000000000000977, 0.7853981633974512766 ) ;
#14 = ORIENTED_EDGE ( 'NONE', *, *, #243, .T. ) ;
#15 = AXIS2_PLACEMENT_3D ( 'NONE', #123, #234, #83 ) ;
#16 = LOCAL_TIME ( 13, 58, 14.00000000000000000, #134 ) ;
#17 = DIRECTION ( 'NONE',  ( 4.275831445896958607E-31, 1.000000000000000000, 1.224646799147353207E-16 ) ) ;
#18 = LOCAL_TIME ( 13, 58, 14.00000000000000000, #132 ) ;
#19 = EDGE_CURVE ( 'NONE', #23, #23, #80, .T. ) ;
#20 = PLANE ( 'NONE',  #190 ) ;
#21 = FACE_BOUND ( 'NONE', #238, .T. ) ;
#22 =( LENGTH_UNIT ( ) NAMED_UNIT ( * ) SI_UNIT ( .MILLI., .METRE. ) );
#23 = VERTEX_POINT ( 'NONE', #231 ) ;
#24 = ADVANCED_FACE ( 'NONE', ( #192, #52 ), #113, .T. ) ;
#25 = DATE_AND_TIME ( #199, #99 ) ;
#26 = ADVANCED_FACE ( 'NONE', ( #206, #21 ), #40, .T. ) ;
#27 = APPROVAL ( #170, 'UNSPECIFIED' ) ;
#28 = APPROVAL_DATE_TIME ( #187, #27 ) ;
#29 = CONICAL_SURFACE ( 'NONE', #232, 3.000000000000024869, 0.5235987755983000369 ) ;
#30 = DIRECTION ( 'NONE',  ( -3.491481338843133355E-15, 1.224646799147353207E-16, -1.000000000000000000 ) ) ;
#31 = EDGE_LOOP ( 'NONE', ( #70 ) ) ;
#32 = AXIS2_PLACEMENT_3D ( 'NONE', #105, #240, #37 ) ;
#33 = DIRECTION ( 'NONE',  ( -3.491481338843133355E-15, 1.224646799147353207E-16, -1.000000000000000000 ) ) ;
#34 = EDGE_LOOP ( 'NONE', ( #224 ) ) ;
#35 = AXIS2_PLACEMENT_3D ( 'NONE', #103, #229, #193 ) ;
#36 = CARTESIAN_POINT ( 'NONE',  ( 4.189777606611760026E-14, -1.469576158976823947E-15, 12.00000000000000000 ) ) ;
#37 = DIRECTION ( 'NONE',  ( 0.0000000000000000000, 1.000000000000000000, 0.0000000000000000000 ) ) ;
#38 = CARTESIAN_POINT ( 'NONE',  ( 4.189777606611760026E-14, 2.249639673992803107E-32, 12.00000000000000000 ) ) ;
#39 = CLOSED_SHELL ( 'NONE', ( #222, #157, #164, #26 ) ) ;
#40 = CONICAL_SURFACE ( 'NONE', #84, 2.600000000000023181, 0.7853981633974508325 ) ;
#41 = COORDINATED_UNIVERSAL_TIME_OFFSET ( 1, 0, .AHEAD. ) ;
#42 = CC_DESIGN_APPROVAL ( #27, ( #122 ) ) ;
#43 = CARTESIAN_POINT ( 'NONE',  ( 2.779219145719134403E-13, 1.999999999999991340, 79.60000000000000853 ) ) ;
#44 = CC_DESIGN_PERSON_AND_ORGANIZATION_ASSIGNMENT ( #91, #201, ( #128 ) ) ;
#45 = VERTEX_POINT ( 'NONE', #165 ) ;
#46 = PERSON_AND_ORGANIZATION ( #10, #141 ) ;
#47 = AXIS2_PLACEMENT_3D ( 'NONE', #36, #152, #118 ) ;
#48 = CC_DESIGN_PERSON_AND_ORGANIZATION_ASSIGNMENT ( #110, #126, ( #226 ) ) ;
#49 = ORIENTED_EDGE ( 'NONE', *, *, #19, .F. ) ;
#50 = CARTESIAN_POINT ( 'NONE',  ( 2.779219145719134403E-13, -9.748188521212932624E-15, 79.60000000000000853 ) ) ;
#51 = EDGE_CURVE ( 'NONE', #45, #45, #114, .T. ) ;
#52 = FACE_OUTER_BOUND ( 'NONE', #67, .T. ) ;
#53 = DATE_AND_TIME ( #205, #16 ) ;
#54 = CC_DESIGN_PERSON_AND_ORGANIZATION_ASSIGNMENT ( #46, #153, ( #122 ) ) ;
#55 = EDGE_CURVE ( 'NONE', #64, #64, #147, .T. ) ;
#56 = ORIENTED_EDGE ( 'NONE', *, *, #181, .T. ) ;
#57 = DIRECTION ( 'NONE',  ( 4.275831445896958607E-31, 1.000000000000000000, 1.224646799147353207E-16 ) ) ;
#58 = APPROVAL_PERSON_ORGANIZATION ( #163, #76, #107 ) ;
#59 = FACE_BOUND ( 'NONE', #34, .T. ) ;
#60 = FACE_OUTER_BOUND ( 'NONE', #135, .T. ) ;
#61 = CARTESIAN_POINT ( 'NONE',  ( 0.0000000000000000000, 2.600000000000023181, 0.0000000000000000000 ) ) ;
#62 =( GEOMETRIC_REPRESENTATION_CONTEXT ( 3 ) GLOBAL_UNCERTAINTY_ASSIGNED_CONTEXT ( ( #6 ) ) GLOBAL_UNIT_ASSIGNED_CONTEXT ( ( #22, #146, #215 ) ) REPRESENTATION_CONTEXT ( 'NONE', 'WORKASPACE' ) );
#63 = DATE_AND_TIME ( #197, #151 ) ;
#64 = VERTEX_POINT ( 'NONE', #149 ) ;
#65 = ORIENTED_EDGE ( 'NONE', *, *, #51, .T. ) ;
#66 = FACE_OUTER_BOUND ( 'NONE', #144, .T. ) ;
#67 = EDGE_LOOP ( 'NONE', ( #1 ) ) ;
#68 = SECURITY_CLASSIFICATION_LEVEL ( 'unclassified' ) ;
#69 = ADVANCED_FACE ( 'NONE', ( #161 ), #178, .F. ) ;
#70 = ORIENTED_EDGE ( 'NONE', *, *, #90, .F. ) ;
#71 = DIRECTION ( 'NONE',  ( 3.491481338843133355E-15, -1.224646799147353207E-16, 1.000000000000000000 ) ) ;
#72 = DIRECTION ( 'NONE',  ( -3.491481338843133355E-15, 1.224646799147353207E-16, -1.000000000000000000 ) ) ;
#73 = ORIENTED_EDGE ( 'NONE', *, *, #19, .T. ) ;
#74 = EDGE_LOOP ( 'NONE', ( #49 ) ) ;
#75 = CARTESIAN_POINT ( 'NONE',  ( -5.558580879666095759E-31, 1.949687717460432680E-32, -1.592040838891573393E-16 ) ) ;
#76 = APPROVAL ( #8, 'UNSPECIFIED' ) ;
#77 = AXIS2_PLACEMENT_3D ( 'NONE', #211, #120, #81 ) ;
#78 = CC_DESIGN_DATE_AND_TIME_ASSIGNMENT ( #87, #138, ( #122 ) ) ;
#79 = CARTESIAN_POINT ( 'NONE',  ( 4.189777606611760026E-14, -1.469576158976823947E-15, 12.00000000000000000 ) ) ;
#80 = CIRCLE ( 'NONE', #200, 3.000000000000024869 ) ;
#81 = DIRECTION ( 'NONE',  ( 0.0000000000000000000, 1.000000000000000000, 0.0000000000000000000 ) ) ;
#82 = PERSON_AND_ORGANIZATION_ROLE ( 'design_owner' ) ;
#83 = DIRECTION ( 'NONE',  ( 4.275831445896957731E-31, 1.000000000000000000, 1.224646799147353207E-16 ) ) ;
#84 = AXIS2_PLACEMENT_3D ( 'NONE', #175, #116, #159 ) ;
#85 = COORDINATED_UNIVERSAL_TIME_OFFSET ( 1, 0, .AHEAD. ) ;
#86 = DIRECTION ( 'NONE',  ( 1.000000000000000000, 0.0000000000000000000, 0.0000000000000000000 ) ) ;
#87 = DATE_AND_TIME ( #174, #93 ) ;
#88 = COORDINATED_UNIVERSAL_TIME_OFFSET ( 1, 0, .AHEAD. ) ;
#89 = EDGE_LOOP ( 'NONE', ( #73 ) ) ;
#90 = EDGE_CURVE ( 'NONE', #4, #4, #214, .T. ) ;
#91 = PERSON_AND_ORGANIZATION ( #10, #141 ) ;
#92 = DIRECTION ( 'NONE',  ( -4.275831445896958607E-31, -1.000000000000000000, -1.224646799147353207E-16 ) ) ;
#93 = LOCAL_TIME ( 13, 58, 14.00000000000000000, #88 ) ;
#94 = AXIS2_PLACEMENT_3D ( 'NONE', #95, #139, #17 ) ;
#95 = CARTESIAN_POINT ( 'NONE',  ( 0.0000000000000000000, 0.0000000000000000000, 0.0000000000000000000 ) ) ;
#96 = APPROVAL_ROLE ( '' ) ;
#97 = ORIENTED_EDGE ( 'NONE', *, *, #51, .F. ) ;
#98 = FACE_OUTER_BOUND ( 'NONE', #154, .T. ) ;
#99 = LOCAL_TIME ( 13, 58, 14.00000000000000000, #85 ) ;
#100 = ORIENTED_EDGE ( 'NONE', *, *, #243, .F. ) ;
#101 = CC_DESIGN_PERSON_AND_ORGANIZATION_ASSIGNMENT ( #180, #82, ( #167 ) ) ;
#102 = EDGE_CURVE ( 'NONE', #169, #169, #186, .T. ) ;
#103 = CARTESIAN_POINT ( 'NONE',  ( 1.396592535537251962E-15, -4.898587196589407529E-17, 0.3999999999999995781 ) ) ;
#104 = PRODUCT_DEFINITION_SHAPE ( 'NONE', 'NONE',  #226 ) ;
#105 = CARTESIAN_POINT ( 'NONE',  ( 2.793185071074506684E-13, -9.797174393178826052E-15, 80.00000000000000000 ) ) ;
#106 = DIRECTION ( 'NONE',  ( 0.0000000000000000000, 0.0000000000000000000, 1.000000000000000000 ) ) ;
#107 = APPROVAL_ROLE ( '' ) ;
#108 = CIRCLE ( 'NONE', #47, 3.000000000000024869 ) ;
#109 = DATE_TIME_ROLE ( 'creation_date' ) ;
#110 = PERSON_AND_ORGANIZATION ( #10, #141 ) ;
#111 = SHAPE_DEFINITION_REPRESENTATION ( #104, #119 ) ;
#112 = APPROVAL_DATE_TIME ( #53, #171 ) ;
#113 = CYLINDRICAL_SURFACE ( 'NONE', #94, 1.999999999999996669 ) ;
#114 = CIRCLE ( 'NONE', #35, 3.000000000000025313 ) ;
#115 = EDGE_LOOP ( 'NONE', ( #14 ) ) ;
#116 = DIRECTION ( 'NONE',  ( 3.491481338843133355E-15, -1.224646799147353207E-16, 1.000000000000000000 ) ) ;
#117 = CC_DESIGN_SECURITY_CLASSIFICATION ( #122, ( #128 ) ) ;
#118 = DIRECTION ( 'NONE',  ( 0.0000000000000000000, 1.000000000000000000, 0.0000000000000000000 ) ) ;
#119 = ADVANCED_BREP_SHAPE_REPRESENTATION ( '321826', ( #140, #218, #228 ), #62 ) ;
#120 = DIRECTION ( 'NONE',  ( -3.491481338843133355E-15, 1.224646799147353207E-16, -1.000000000000000000 ) ) ;
#121 = FACE_BOUND ( 'NONE', #194, .T. ) ;
#122 = SECURITY_CLASSIFICATION ( '', '', #68 ) ;
#123 = CARTESIAN_POINT ( 'NONE',  ( 0.0000000000000000000, 0.0000000000000000000, 0.0000000000000000000 ) ) ;
#124 = VERTEX_POINT ( 'NONE', #129 ) ;
#125 = ORIENTED_EDGE ( 'NONE', *, *, #181, .F. ) ;
#126 = PERSON_AND_ORGANIZATION_ROLE ( 'creator' ) ;
#127 = AXIS2_PLACEMENT_3D ( 'NONE', #50, #33, #189 ) ;
#128 = PRODUCT_DEFINITION_FORMATION_WITH_SPECIFIED_SOURCE ( 'ANY', '', #167, .NOT_KNOWN. ) ;
#129 = CARTESIAN_POINT ( 'NONE',  ( 4.189777606611760026E-14, 3.000000000000023537, 12.00000000000000000 ) ) ;
#130 = CARTESIAN_POINT ( 'NONE',  ( -1.111716175933219152E-30, 3.899375434920865360E-32, -3.184081677783146787E-16 ) ) ;
#131 = CC_DESIGN_PERSON_AND_ORGANIZATION_ASSIGNMENT ( #176, #221, ( #128 ) ) ;
#132 = COORDINATED_UNIVERSAL_TIME_OFFSET ( 1, 0, .AHEAD. ) ;
#133 = CC_DESIGN_APPROVAL ( #171, ( #128 ) ) ;
#134 = COORDINATED_UNIVERSAL_TIME_OFFSET ( 1, 0, .AHEAD. ) ;
#135 = EDGE_LOOP ( 'NONE', ( #56 ) ) ;
#136 = CC_DESIGN_DATE_AND_TIME_ASSIGNMENT ( #25, #109, ( #226 ) ) ;
#137 = ORIENTED_EDGE ( 'NONE', *, *, #102, .F. ) ;
#138 = DATE_TIME_ROLE ( 'classification_date' ) ;
#139 = DIRECTION ( 'NONE',  ( -3.491481338843133355E-15, 1.224646799147353207E-16, -1.000000000000000000 ) ) ;
#140 = MANIFOLD_SOLID_BREP ( 'Corps-Déplacer/Copier1[1]', #12 ) ;
#141 = ORGANIZATION ( 'UNSPECIFIED', 'UNSPECIFIED', '' ) ;
#142 = DIRECTION ( 'NONE',  ( 0.0000000000000000000, 1.000000000000000000, 0.0000000000000000000 ) ) ;
#143 = DIRECTION ( 'NONE',  ( -3.491481338843133355E-15, 1.224646799147353207E-16, -1.000000000000000000 ) ) ;
#144 = EDGE_LOOP ( 'NONE', ( #97 ) ) ;
#145 = FACE_OUTER_BOUND ( 'NONE', #31, .T. ) ;
#146 =( NAMED_UNIT ( * ) PLANE_ANGLE_UNIT ( ) SI_UNIT ( $, .RADIAN. ) );
#147 = CIRCLE ( 'NONE', #32, 1.600000000000000977 ) ;
#148 = CYLINDRICAL_SURFACE ( 'NONE', #15, 3.000000000000025313 ) ;
#149 = CARTESIAN_POINT ( 'NONE',  ( 2.793185071074506684E-13, 1.599999999999991207, 80.00000000000000000 ) ) ;
#150 = CALENDAR_DATE ( 2021, 2, 12 ) ;
#151 = LOCAL_TIME ( 13, 58, 14.00000000000000000, #41 ) ;
#152 = DIRECTION ( 'NONE',  ( -3.491481338843133355E-15, 1.224646799147353207E-16, -1.000000000000000000 ) ) ;
#153 = PERSON_AND_ORGANIZATION_ROLE ( 'classification_officer' ) ;
#154 = EDGE_LOOP ( 'NONE', ( #125 ) ) ;
#155 = DIRECTION ( 'NONE',  ( -3.491481338843133355E-15, 1.224646799147353207E-16, -1.000000000000000000 ) ) ;
#156 = EDGE_LOOP ( 'NONE', ( #191 ) ) ;
#157 = ADVANCED_FACE ( 'NONE', ( #98 ), #177, .T. ) ;
#158 = DIRECTION ( 'NONE',  ( -3.491481338843133355E-15, 1.224646799147353207E-16, -1.000000000000000000 ) ) ;
#159 = DIRECTION ( 'NONE',  ( -4.275831445896958607E-31, -1.000000000000000000, -1.224646799147353207E-16 ) ) ;
#160 = APPROVAL_PERSON_ORGANIZATION ( #225, #27, #236 ) ;
#161 = FACE_OUTER_BOUND ( 'NONE', #156, .T. ) ;
#162 = APPLICATION_CONTEXT ( 'configuration controlled 3d designs of mechanical parts and assemblies' ) ;
#163 = PERSON_AND_ORGANIZATION ( #10, #141 ) ;
#164 = ADVANCED_FACE ( 'NONE', ( #210 ), #241, .T. ) ;
#165 = CARTESIAN_POINT ( 'NONE',  ( 1.396592535537253342E-15, 3.000000000000025313, 0.3999999999999999667 ) ) ;
#166 = APPROVAL_DATE_TIME ( #63, #76 ) ;
#167 = PRODUCT ( '321826', '321826', '', ( #216 ) ) ;
#168 = CARTESIAN_POINT ( 'NONE',  ( 0.0000000000000000000, 0.0000000000000000000, 0.0000000000000000000 ) ) ;
#169 = VERTEX_POINT ( 'NONE', #182 ) ;
#170 = APPROVAL_STATUS ( 'not_yet_approved' ) ;
#171 = APPROVAL ( #185, 'UNSPECIFIED' ) ;
#172 = FACE_OUTER_BOUND ( 'NONE', #89, .T. ) ;
#173 = AXIS2_PLACEMENT_3D ( 'NONE', #130, #219, #233 ) ;
#174 = CALENDAR_DATE ( 2021, 2, 12 ) ;
#175 = CARTESIAN_POINT ( 'NONE',  ( -1.111716175933219152E-30, 3.899375434920865360E-32, -3.184081677783146787E-16 ) ) ;
#176 = PERSON_AND_ORGANIZATION ( #10, #141 ) ;
#177 = PLANE ( 'NONE',  #198 ) ;
#178 = PLANE ( 'NONE',  #207 ) ;
#179 = DIRECTION ( 'NONE',  ( 3.491481338843133355E-15, -1.224646799147353207E-16, 1.000000000000000000 ) ) ;
#180 = PERSON_AND_ORGANIZATION ( #10, #141 ) ;
#181 = EDGE_CURVE ( 'NONE', #124, #124, #108, .T. ) ;
#182 = CARTESIAN_POINT ( 'NONE',  ( 4.794519913867269727E-14, 1.999999999999990452, 13.73205080756893004 ) ) ;
#183 = CC_DESIGN_APPROVAL ( #76, ( #226 ) ) ;
#184 = PERSON_AND_ORGANIZATION ( #10, #141 ) ;
#185 = APPROVAL_STATUS ( 'not_yet_approved' ) ;
#186 = CIRCLE ( 'NONE', #77, 1.999999999999992228 ) ;
#187 = DATE_AND_TIME ( #150, #18 ) ;
#188 = ORIENTED_EDGE ( 'NONE', *, *, #55, .T. ) ;
#189 = DIRECTION ( 'NONE',  ( 0.0000000000000000000, 1.000000000000000000, 0.0000000000000000000 ) ) ;
#190 = AXIS2_PLACEMENT_3D ( 'NONE', #230, #179, #239 ) ;
#191 = ORIENTED_EDGE ( 'NONE', *, *, #55, .F. ) ;
#192 = FACE_OUTER_BOUND ( 'NONE', #203, .T. ) ;
#193 = DIRECTION ( 'NONE',  ( 4.493836536903512080E-31, 1.000000000000000000, 1.264902534566411075E-16 ) ) ;
#194 = EDGE_LOOP ( 'NONE', ( #188 ) ) ;
#195 = CARTESIAN_POINT ( 'NONE',  ( 2.793185071074506684E-13, 1.199807826129472128E-32, 80.00000000000000000 ) ) ;
#196 = PRODUCT_RELATED_PRODUCT_CATEGORY ( 'detail', '', ( #167 ) ) ;
#197 = CALENDAR_DATE ( 2021, 2, 12 ) ;
#198 = AXIS2_PLACEMENT_3D ( 'NONE', #38, #71, #92 ) ;
#199 = CALENDAR_DATE ( 2021, 2, 12 ) ;
#200 = AXIS2_PLACEMENT_3D ( 'NONE', #79, #155, #142 ) ;
#201 = PERSON_AND_ORGANIZATION_ROLE ( 'creator' ) ;
#202 = ADVANCED_FACE ( 'NONE', ( #172 ), #20, .F. ) ;
#203 = EDGE_LOOP ( 'NONE', ( #137 ) ) ;
#204 = CARTESIAN_POINT ( 'NONE',  ( 2.793185071074506684E-13, -9.797174393178826052E-15, 80.00000000000000000 ) ) ;
#205 = CALENDAR_DATE ( 2021, 2, 12 ) ;
#206 = FACE_OUTER_BOUND ( 'NONE', #208, .T. ) ;
#207 = AXIS2_PLACEMENT_3D ( 'NONE', #195, #72, #227 ) ;
#208 = EDGE_LOOP ( 'NONE', ( #65 ) ) ;
#209 = APPROVAL_PERSON_ORGANIZATION ( #184, #171, #96 ) ;
#210 = FACE_OUTER_BOUND ( 'NONE', #115, .T. ) ;
#211 = CARTESIAN_POINT ( 'NONE',  ( 4.794519913867269727E-14, -1.681691206721811690E-15, 13.73205080756893004 ) ) ;
#212 = ADVANCED_FACE ( 'NONE', ( #59, #223 ), #29, .T. ) ;
#213 = DIRECTION ( 'NONE',  ( 0.0000000000000000000, 1.000000000000000000, 0.0000000000000000000 ) ) ;
#214 = CIRCLE ( 'NONE', #127, 2.000000000000000888 ) ;
#215 =( NAMED_UNIT ( * ) SI_UNIT ( $, .STERADIAN. ) SOLID_ANGLE_UNIT ( ) );
#216 = MECHANICAL_CONTEXT ( 'NONE', #217, 'mechanical' ) ;
#217 = APPLICATION_CONTEXT ( 'configuration controlled 3d designs of mechanical parts and assemblies' ) ;
#218 = MANIFOLD_SOLID_BREP ( 'Corps-Déplacer/Copier1[2]', #39 ) ;
#219 = DIRECTION ( 'NONE',  ( -3.491481338843133355E-15, 1.224646799147353207E-16, -1.000000000000000000 ) ) ;
#220 = AXIS2_PLACEMENT_3D ( 'NONE', #204, #30, #213 ) ;
#221 = PERSON_AND_ORGANIZATION_ROLE ( 'design_supplier' ) ;
#222 = ADVANCED_FACE ( 'NONE', ( #60, #66 ), #148, .T. ) ;
#223 = FACE_OUTER_BOUND ( 'NONE', #74, .T. ) ;
#224 = ORIENTED_EDGE ( 'NONE', *, *, #102, .T. ) ;
#225 = PERSON_AND_ORGANIZATION ( #10, #141 ) ;
#226 = PRODUCT_DEFINITION ( 'UNKNOWN', '', #128, #237 ) ;
#227 = DIRECTION ( 'NONE',  ( 4.275831445896958607E-31, 1.000000000000000000, 1.224646799147353207E-16 ) ) ;
#228 = AXIS2_PLACEMENT_3D ( 'NONE', #168, #106, #86 ) ;
#229 = DIRECTION ( 'NONE',  ( -3.491481338843133355E-15, 1.224646799147353207E-16, -1.000000000000000000 ) ) ;
#230 = CARTESIAN_POINT ( 'NONE',  ( 4.189777606611760026E-14, 2.249639673992803107E-32, 12.00000000000000000 ) ) ;
#231 = CARTESIAN_POINT ( 'NONE',  ( 4.189777606611760026E-14, 3.000000000000023537, 12.00000000000000000 ) ) ;
#232 = AXIS2_PLACEMENT_3D ( 'NONE', #2, #143, #3 ) ;
#233 = DIRECTION ( 'NONE',  ( 4.275831445896958607E-31, 1.000000000000000000, 1.224646799147353207E-16 ) ) ;
#234 = DIRECTION ( 'NONE',  ( -3.491481338843133355E-15, 1.224646799147353207E-16, -1.000000000000000000 ) ) ;
#235 = APPLICATION_PROTOCOL_DEFINITION ( 'international standard', 'config_control_design', 1994, #162 ) ;
#236 = APPROVAL_ROLE ( '' ) ;
#237 = DESIGN_CONTEXT ( 'detailed design', #162, 'design' ) ;
#238 = EDGE_LOOP ( 'NONE', ( #100 ) ) ;
#239 = DIRECTION ( 'NONE',  ( -4.275831445896958607E-31, -1.000000000000000000, -1.224646799147353207E-16 ) ) ;
#240 = DIRECTION ( 'NONE',  ( -3.491481338843133355E-15, 1.224646799147353207E-16, -1.000000000000000000 ) ) ;
#241 = PLANE ( 'NONE',  #7 ) ;
#242 = CIRCLE ( 'NONE', #173, 2.600000000000023181 ) ;
#243 = EDGE_CURVE ( 'NONE', #9, #9, #242, .T. ) ;
ENDSEC;
END-ISO-10303-21;
