ISO-10303-21;
HEADER;
FILE_DESCRIPTION (( 'STEP AP203' ),
    '1' );
FILE_NAME ('321825.step',
    '2021-12-02T12:58:13',
    ( '' ),
    ( '' ),
    'SwSTEP 2.0',
    'SolidWorks 2019',
    '' );
FILE_SCHEMA (( 'CONFIG_CONTROL_DESIGN' ));
ENDSEC;

DATA;
#1 = EDGE_CURVE ( 'NONE', #173, #173, #176, .T. ) ;
#2 = COORDINATED_UNIVERSAL_TIME_OFFSET ( 1, 0, .AHEAD. ) ;
#3 = AXIS2_PLACEMENT_3D ( 'NONE', #189, #14, #239 ) ;
#4 = DATE_AND_TIME ( #228, #114 ) ;
#5 = APPROVAL_STATUS ( 'not_yet_approved' ) ;
#6 = DIRECTION ( 'NONE',  ( 0.0000000000000000000, 1.000000000000000000, 0.0000000000000000000 ) ) ;
#7 = AXIS2_PLACEMENT_3D ( 'NONE', #179, #49, #69 ) ;
#8 = AXIS2_PLACEMENT_3D ( 'NONE', #237, #241, #200 ) ;
#9 = FACE_OUTER_BOUND ( 'NONE', #220, .T. ) ;
#10 = EDGE_LOOP ( 'NONE', ( #93 ) ) ;
#11 = FACE_OUTER_BOUND ( 'NONE', #32, .T. ) ;
#12 =( LENGTH_UNIT ( ) NAMED_UNIT ( * ) SI_UNIT ( .MILLI., .METRE. ) );
#13 = ORIENTED_EDGE ( 'NONE', *, *, #103, .F. ) ;
#14 = DIRECTION ( 'NONE',  ( -3.491481338843133355E-15, 1.224646799147353207E-16, -1.000000000000000000 ) ) ;
#15 = DIRECTION ( 'NONE',  ( -4.275831445896958607E-31, -1.000000000000000000, -1.224646799147353207E-16 ) ) ;
#16 = EDGE_CURVE ( 'NONE', #65, #65, #73, .T. ) ;
#17 = PERSON_AND_ORGANIZATION ( #190, #22 ) ;
#18 = DIRECTION ( 'NONE',  ( -3.491481338843133355E-15, 1.224646799147353207E-16, -1.000000000000000000 ) ) ;
#19 = ADVANCED_FACE ( 'NONE', ( #157 ), #140, .F. ) ;
#20 = DATE_AND_TIME ( #75, #223 ) ;
#21 = AXIS2_PLACEMENT_3D ( 'NONE', #80, #44, #15 ) ;
#22 = ORGANIZATION ( 'UNSPECIFIED', 'UNSPECIFIED', '' ) ;
#23 = COORDINATED_UNIVERSAL_TIME_OFFSET ( 1, 0, .AHEAD. ) ;
#24 = CARTESIAN_POINT ( 'NONE',  ( 2.779219145719134403E-13, -9.748188521212932624E-15, 79.60000000000000853 ) ) ;
#25 = CC_DESIGN_DATE_AND_TIME_ASSIGNMENT ( #104, #148, ( #101 ) ) ;
#26 = CARTESIAN_POINT ( 'NONE',  ( 2.793185071074506684E-13, -9.797174393178826052E-15, 80.00000000000000000 ) ) ;
#27 = DIRECTION ( 'NONE',  ( 4.275831445896958607E-31, 1.000000000000000000, 1.224646799147353207E-16 ) ) ;
#28 = APPROVAL_PERSON_ORGANIZATION ( #149, #147, #170 ) ;
#29 = PLANE ( 'NONE',  #21 ) ;
#30 = EDGE_LOOP ( 'NONE', ( #142 ) ) ;
#31 = FACE_OUTER_BOUND ( 'NONE', #88, .T. ) ;
#32 = EDGE_LOOP ( 'NONE', ( #242 ) ) ;
#33 = ORIENTED_EDGE ( 'NONE', *, *, #1, .F. ) ;
#34 = ORIENTED_EDGE ( 'NONE', *, *, #42, .T. ) ;
#35 = CONICAL_SURFACE ( 'NONE', #8, 1.600000000000000977, 0.7853981633974512766 ) ;
#36 = CARTESIAN_POINT ( 'NONE',  ( 4.189777606611760026E-14, -1.469576158976823947E-15, 12.00000000000000000 ) ) ;
#37 = PERSON_AND_ORGANIZATION_ROLE ( 'classification_officer' ) ;
#38 = APPROVAL_ROLE ( '' ) ;
#39 = DIRECTION ( 'NONE',  ( 0.0000000000000000000, 0.0000000000000000000, 1.000000000000000000 ) ) ;
#40 = DIRECTION ( 'NONE',  ( 0.0000000000000000000, 1.000000000000000000, 0.0000000000000000000 ) ) ;
#41 = EDGE_CURVE ( 'NONE', #87, #87, #232, .T. ) ;
#42 = EDGE_CURVE ( 'NONE', #111, #111, #122, .T. ) ;
#43 = MANIFOLD_SOLID_BREP ( 'Corps-Déplacer/Copier1[2]', #85 ) ;
#44 = DIRECTION ( 'NONE',  ( 3.491481338843133355E-15, -1.224646799147353207E-16, 1.000000000000000000 ) ) ;
#45 = CC_DESIGN_PERSON_AND_ORGANIZATION_ASSIGNMENT ( #205, #37, ( #101 ) ) ;
#46 = CARTESIAN_POINT ( 'NONE',  ( 2.793185071074506684E-13, 1.599999999999991207, 80.00000000000000000 ) ) ;
#47 = AXIS2_PLACEMENT_3D ( 'NONE', #105, #109, #27 ) ;
#48 = APPLICATION_CONTEXT ( 'configuration controlled 3d designs of mechanical parts and assemblies' ) ;
#49 = DIRECTION ( 'NONE',  ( -3.491481338843133355E-15, 1.224646799147353207E-16, -1.000000000000000000 ) ) ;
#50 = CC_DESIGN_PERSON_AND_ORGANIZATION_ASSIGNMENT ( #166, #224, ( #154 ) ) ;
#51 = VERTEX_POINT ( 'NONE', #46 ) ;
#52 = COORDINATED_UNIVERSAL_TIME_OFFSET ( 1, 0, .AHEAD. ) ;
#53 = COORDINATED_UNIVERSAL_TIME_OFFSET ( 1, 0, .AHEAD. ) ;
#54 = APPROVAL_STATUS ( 'not_yet_approved' ) ;
#55 = DATE_AND_TIME ( #76, #128 ) ;
#56 = ADVANCED_FACE ( 'NONE', ( #207 ), #186, .T. ) ;
#57 = CYLINDRICAL_SURFACE ( 'NONE', #98, 2.995000000000024976 ) ;
#58 = CIRCLE ( 'NONE', #231, 2.995000000000024976 ) ;
#59 = APPLICATION_CONTEXT ( 'configuration controlled 3d designs of mechanical parts and assemblies' ) ;
#60 = DIRECTION ( 'NONE',  ( -3.491481338843133355E-15, 1.224646799147353207E-16, -1.000000000000000000 ) ) ;
#61 = CARTESIAN_POINT ( 'NONE',  ( 4.189777606611760026E-14, 2.995000000000023643, 12.00000000000000000 ) ) ;
#62 = ORIENTED_EDGE ( 'NONE', *, *, #41, .T. ) ;
#63 = APPROVAL ( #116, 'UNSPECIFIED' ) ;
#64 = AXIS2_PLACEMENT_3D ( 'NONE', #217, #162, #194 ) ;
#65 = VERTEX_POINT ( 'NONE', #146 ) ;
#66 = FACE_OUTER_BOUND ( 'NONE', #82, .T. ) ;
#67 = DIRECTION ( 'NONE',  ( -3.491481338843133355E-15, 1.224646799147353207E-16, -1.000000000000000000 ) ) ;
#68 = CC_DESIGN_SECURITY_CLASSIFICATION ( #101, ( #121 ) ) ;
#69 = DIRECTION ( 'NONE',  ( 4.275831445896958607E-31, 1.000000000000000000, 1.224646799147353207E-16 ) ) ;
#70 = ORIENTED_EDGE ( 'NONE', *, *, #139, .F. ) ;
#71 = APPROVAL_DATE_TIME ( #226, #63 ) ;
#72 = DATE_TIME_ROLE ( 'creation_date' ) ;
#73 = CIRCLE ( 'NONE', #197, 2.995000000000024976 ) ;
#74 = AXIS2_PLACEMENT_3D ( 'NONE', #110, #163, #144 ) ;
#75 = CALENDAR_DATE ( 2021, 2, 12 ) ;
#76 = CALENDAR_DATE ( 2021, 2, 12 ) ;
#77 = CC_DESIGN_APPROVAL ( #147, ( #121 ) ) ;
#78 = DIRECTION ( 'NONE',  ( -3.491481338843133355E-15, 1.224646799147353207E-16, -1.000000000000000000 ) ) ;
#79 = DIRECTION ( 'NONE',  ( 0.0000000000000000000, 1.000000000000000000, 0.0000000000000000000 ) ) ;
#80 = CARTESIAN_POINT ( 'NONE',  ( 4.189777606611760026E-14, 2.245890274536148709E-32, 12.00000000000000000 ) ) ;
#81 = ADVANCED_FACE ( 'NONE', ( #106, #9 ), #181, .T. ) ;
#82 = EDGE_LOOP ( 'NONE', ( #34 ) ) ;
#83 = FACE_BOUND ( 'NONE', #195, .T. ) ;
#84 = ORIENTED_EDGE ( 'NONE', *, *, #42, .F. ) ;
#85 = CLOSED_SHELL ( 'NONE', ( #115, #171, #56, #225 ) ) ;
#86 = APPROVAL_PERSON_ORGANIZATION ( #208, #234, #38 ) ;
#87 = VERTEX_POINT ( 'NONE', #215 ) ;
#88 = EDGE_LOOP ( 'NONE', ( #70 ) ) ;
#89 = CC_DESIGN_PERSON_AND_ORGANIZATION_ASSIGNMENT ( #17, #133, ( #155 ) ) ;
#90 = APPLICATION_PROTOCOL_DEFINITION ( 'international standard', 'config_control_design', 1994, #59 ) ;
#91 = ADVANCED_BREP_SHAPE_REPRESENTATION ( '321825', ( #211, #43, #198 ), #107 ) ;
#92 = CARTESIAN_POINT ( 'NONE',  ( 4.791496202330991591E-14, -1.680630631483086646E-15, 13.72339055353108428 ) ) ;
#93 = ORIENTED_EDGE ( 'NONE', *, *, #103, .T. ) ;
#94 = APPLICATION_PROTOCOL_DEFINITION ( 'international standard', 'config_control_design', 1994, #48 ) ;
#95 = CC_DESIGN_PERSON_AND_ORGANIZATION_ASSIGNMENT ( #117, #183, ( #121 ) ) ;
#96 = PRODUCT_DEFINITION_SHAPE ( 'NONE', 'NONE',  #154 ) ;
#97 = DIRECTION ( 'NONE',  ( 1.000000000000000000, 0.0000000000000000000, 0.0000000000000000000 ) ) ;
#98 = AXIS2_PLACEMENT_3D ( 'NONE', #138, #78, #180 ) ;
#99 = COORDINATED_UNIVERSAL_TIME_OFFSET ( 1, 0, .AHEAD. ) ;
#100 = AXIS2_PLACEMENT_3D ( 'NONE', #26, #60, #79 ) ;
#101 = SECURITY_CLASSIFICATION ( '', '', #151 ) ;
#102 = DIRECTION ( 'NONE',  ( -3.491481338843133355E-15, 1.224646799147353207E-16, -1.000000000000000000 ) ) ;
#103 = EDGE_CURVE ( 'NONE', #51, #51, #184, .T. ) ;
#104 = DATE_AND_TIME ( #134, #137 ) ;
#105 = CARTESIAN_POINT ( 'NONE',  ( -5.547891301051354278E-31, 1.945938318003777735E-32, -1.588979221893705202E-16 ) ) ;
#106 = FACE_BOUND ( 'NONE', #112, .T. ) ;
#107 =( GEOMETRIC_REPRESENTATION_CONTEXT ( 3 ) GLOBAL_UNCERTAINTY_ASSIGNED_CONTEXT ( ( #135 ) ) GLOBAL_UNIT_ASSIGNED_CONTEXT ( ( #12, #201, #196 ) ) REPRESENTATION_CONTEXT ( 'NONE', 'WORKASPACE' ) );
#108 = DESIGN_CONTEXT ( 'detailed design', #48, 'design' ) ;
#109 = DIRECTION ( 'NONE',  ( -3.491481338843133355E-15, 1.224646799147353207E-16, -1.000000000000000000 ) ) ;
#110 = CARTESIAN_POINT ( 'NONE',  ( 4.189777606611760026E-14, 2.245890274536148709E-32, 12.00000000000000000 ) ) ;
#111 = VERTEX_POINT ( 'NONE', #221 ) ;
#112 = EDGE_LOOP ( 'NONE', ( #177 ) ) ;
#113 = FACE_OUTER_BOUND ( 'NONE', #126, .T. ) ;
#114 = LOCAL_TIME ( 13, 58, 13.00000000000000000, #2 ) ;
#115 = ADVANCED_FACE ( 'NONE', ( #158, #230 ), #57, .T. ) ;
#116 = APPROVAL_STATUS ( 'not_yet_approved' ) ;
#117 = PERSON_AND_ORGANIZATION ( #190, #22 ) ;
#118 = PRODUCT_RELATED_PRODUCT_CATEGORY ( 'detail', '', ( #155 ) ) ;
#119 = DIRECTION ( 'NONE',  ( -3.491481338843133355E-15, 1.224646799147353207E-16, -1.000000000000000000 ) ) ;
#120 = DIRECTION ( 'NONE',  ( -3.491481338843133355E-15, 1.224646799147353207E-16, -1.000000000000000000 ) ) ;
#121 = PRODUCT_DEFINITION_FORMATION_WITH_SPECIFIED_SOURCE ( 'ANY', '', #155, .NOT_KNOWN. ) ;
#122 = CIRCLE ( 'NONE', #219, 2.000000000000000888 ) ;
#123 = ORIENTED_EDGE ( 'NONE', *, *, #41, .F. ) ;
#124 = FACE_OUTER_BOUND ( 'NONE', #222, .T. ) ;
#125 = FACE_BOUND ( 'NONE', #10, .T. ) ;
#126 = EDGE_LOOP ( 'NONE', ( #84 ) ) ;
#127 = AXIS2_PLACEMENT_3D ( 'NONE', #36, #119, #40 ) ;
#128 = LOCAL_TIME ( 13, 58, 13.00000000000000000, #52 ) ;
#129 = DIRECTION ( 'NONE',  ( 0.0000000000000000000, 1.000000000000000000, 0.0000000000000000000 ) ) ;
#130 = EDGE_LOOP ( 'NONE', ( #216 ) ) ;
#131 = CARTESIAN_POINT ( 'NONE',  ( 1.396592535537251173E-15, -4.898587196589405063E-17, 0.3999999999999993561 ) ) ;
#132 = PERSON_AND_ORGANIZATION ( #190, #22 ) ;
#133 = PERSON_AND_ORGANIZATION_ROLE ( 'design_owner' ) ;
#134 = CALENDAR_DATE ( 2021, 2, 12 ) ;
#135 = UNCERTAINTY_MEASURE_WITH_UNIT (LENGTH_MEASURE( 1.000000000000000082E-05 ), #12, 'distance_accuracy_value', 'NONE');
#136 = APPROVAL_DATE_TIME ( #55, #234 ) ;
#137 = LOCAL_TIME ( 13, 58, 13.00000000000000000, #99 ) ;
#138 = CARTESIAN_POINT ( 'NONE',  ( 0.0000000000000000000, 0.0000000000000000000, 0.0000000000000000000 ) ) ;
#139 = EDGE_CURVE ( 'NONE', #145, #145, #58, .T. ) ;
#140 = PLANE ( 'NONE',  #3 ) ;
#141 = ADVANCED_FACE ( 'NONE', ( #124 ), #29, .F. ) ;
#142 = ORIENTED_EDGE ( 'NONE', *, *, #16, .T. ) ;
#143 = DIRECTION ( 'NONE',  ( 0.0000000000000000000, 1.000000000000000000, 0.0000000000000000000 ) ) ;
#144 = DIRECTION ( 'NONE',  ( -4.275831445896958607E-31, -1.000000000000000000, -1.224646799147353207E-16 ) ) ;
#145 = VERTEX_POINT ( 'NONE', #61 ) ;
#146 = CARTESIAN_POINT ( 'NONE',  ( 1.396592535537252553E-15, 2.995000000000024976, 0.3999999999999997446 ) ) ;
#147 = APPROVAL ( #54, 'UNSPECIFIED' ) ;
#148 = DATE_TIME_ROLE ( 'classification_date' ) ;
#149 = PERSON_AND_ORGANIZATION ( #190, #22 ) ;
#150 = DIRECTION ( 'NONE',  ( 0.0000000000000000000, 1.000000000000000000, 0.0000000000000000000 ) ) ;
#151 = SECURITY_CLASSIFICATION_LEVEL ( 'unclassified' ) ;
#152 = CARTESIAN_POINT ( 'NONE',  ( -1.109578260210270856E-30, 3.891876636007555470E-32, -3.177958443787410404E-16 ) ) ;
#153 = CARTESIAN_POINT ( 'NONE',  ( 0.0000000000000000000, 0.0000000000000000000, 0.0000000000000000000 ) ) ;
#154 = PRODUCT_DEFINITION ( 'UNKNOWN', '', #121, #108 ) ;
#155 = PRODUCT ( '321825', '321825', '', ( #185 ) ) ;
#156 = CC_DESIGN_PERSON_AND_ORGANIZATION_ASSIGNMENT ( #204, #243, ( #121 ) ) ;
#157 = FACE_OUTER_BOUND ( 'NONE', #193, .T. ) ;
#158 = FACE_OUTER_BOUND ( 'NONE', #130, .T. ) ;
#159 = PLANE ( 'NONE',  #74 ) ;
#160 = DIRECTION ( 'NONE',  ( -3.491481338843133355E-15, 1.224646799147353207E-16, -1.000000000000000000 ) ) ;
#161 = ORIENTED_EDGE ( 'NONE', *, *, #16, .F. ) ;
#162 = DIRECTION ( 'NONE',  ( 3.491481338843133355E-15, -1.224646799147353207E-16, 1.000000000000000000 ) ) ;
#163 = DIRECTION ( 'NONE',  ( 3.491481338843133355E-15, -1.224646799147353207E-16, 1.000000000000000000 ) ) ;
#164 = EDGE_LOOP ( 'NONE', ( #62 ) ) ;
#165 = APPROVAL_DATE_TIME ( #20, #147 ) ;
#166 = PERSON_AND_ORGANIZATION ( #190, #22 ) ;
#167 = EDGE_CURVE ( 'NONE', #175, #175, #187, .T. ) ;
#168 = CLOSED_SHELL ( 'NONE', ( #141, #81, #209, #178, #19 ) ) ;
#169 = CALENDAR_DATE ( 2021, 2, 12 ) ;
#170 = APPROVAL_ROLE ( '' ) ;
#171 = ADVANCED_FACE ( 'NONE', ( #31 ), #159, .T. ) ;
#172 = APPROVAL_PERSON_ORGANIZATION ( #132, #63, #182 ) ;
#173 = VERTEX_POINT ( 'NONE', #238 ) ;
#174 = ORIENTED_EDGE ( 'NONE', *, *, #1, .T. ) ;
#175 = VERTEX_POINT ( 'NONE', #240 ) ;
#176 = CIRCLE ( 'NONE', #127, 2.995000000000024976 ) ;
#177 = ORIENTED_EDGE ( 'NONE', *, *, #167, .T. ) ;
#178 = ADVANCED_FACE ( 'NONE', ( #113, #125 ), #35, .T. ) ;
#179 = CARTESIAN_POINT ( 'NONE',  ( 0.0000000000000000000, 0.0000000000000000000, 0.0000000000000000000 ) ) ;
#180 = DIRECTION ( 'NONE',  ( 4.275831445896958607E-31, 1.000000000000000000, 1.224646799147352961E-16 ) ) ;
#181 = CONICAL_SURFACE ( 'NONE', #202, 2.995000000000024976, 0.5235987755983003700 ) ;
#182 = APPROVAL_ROLE ( '' ) ;
#183 = PERSON_AND_ORGANIZATION_ROLE ( 'creator' ) ;
#184 = CIRCLE ( 'NONE', #100, 1.600000000000000977 ) ;
#185 = MECHANICAL_CONTEXT ( 'NONE', #59, 'mechanical' ) ;
#186 = PLANE ( 'NONE',  #47 ) ;
#187 = CIRCLE ( 'NONE', #233, 1.999999999999992228 ) ;
#188 = CARTESIAN_POINT ( 'NONE',  ( 4.189777606611760026E-14, -1.469576158976823947E-15, 12.00000000000000000 ) ) ;
#189 = CARTESIAN_POINT ( 'NONE',  ( 2.793185071074506684E-13, 1.199807826129472128E-32, 80.00000000000000000 ) ) ;
#190 = PERSON ( 'UNSPECIFIED', 'UNSPECIFIED', 'UNSPECIFIED', ('UNSPECIFIED'), ('UNSPECIFIED'), ('UNSPECIFIED') ) ;
#191 = CC_DESIGN_DATE_AND_TIME_ASSIGNMENT ( #4, #72, ( #154 ) ) ;
#192 = CARTESIAN_POINT ( 'NONE',  ( 4.189777606611760026E-14, -1.469576158976823947E-15, 12.00000000000000000 ) ) ;
#193 = EDGE_LOOP ( 'NONE', ( #13 ) ) ;
#194 = DIRECTION ( 'NONE',  ( -4.275831445896959482E-31, -1.000000000000000000, -1.224646799147353207E-16 ) ) ;
#195 = EDGE_LOOP ( 'NONE', ( #123 ) ) ;
#196 =( NAMED_UNIT ( * ) SI_UNIT ( $, .STERADIAN. ) SOLID_ANGLE_UNIT ( ) );
#197 = AXIS2_PLACEMENT_3D ( 'NONE', #131, #18, #206 ) ;
#198 = AXIS2_PLACEMENT_3D ( 'NONE', #153, #39, #97 ) ;
#199 = EDGE_LOOP ( 'NONE', ( #161 ) ) ;
#200 = DIRECTION ( 'NONE',  ( 0.0000000000000000000, 1.000000000000000000, 0.0000000000000000000 ) ) ;
#201 =( NAMED_UNIT ( * ) PLANE_ANGLE_UNIT ( ) SI_UNIT ( $, .RADIAN. ) );
#202 = AXIS2_PLACEMENT_3D ( 'NONE', #188, #212, #6 ) ;
#203 = CC_DESIGN_APPROVAL ( #63, ( #154 ) ) ;
#204 = PERSON_AND_ORGANIZATION ( #190, #22 ) ;
#205 = PERSON_AND_ORGANIZATION ( #190, #22 ) ;
#206 = DIRECTION ( 'NONE',  ( 4.501338768183819329E-31, 1.000000000000000000, 1.267014224941313513E-16 ) ) ;
#207 = FACE_OUTER_BOUND ( 'NONE', #164, .T. ) ;
#208 = PERSON_AND_ORGANIZATION ( #190, #22 ) ;
#209 = ADVANCED_FACE ( 'NONE', ( #11, #66 ), #218, .T. ) ;
#210 = SHAPE_DEFINITION_REPRESENTATION ( #96, #91 ) ;
#211 = MANIFOLD_SOLID_BREP ( 'Corps-Déplacer/Copier1[1]', #168 ) ;
#212 = DIRECTION ( 'NONE',  ( -3.491481338843133355E-15, 1.224646799147353207E-16, -1.000000000000000000 ) ) ;
#213 = CONICAL_SURFACE ( 'NONE', #64, 2.595000000000023288, 0.7853981633974504994 ) ;
#214 = CC_DESIGN_APPROVAL ( #234, ( #101 ) ) ;
#215 = CARTESIAN_POINT ( 'NONE',  ( 0.0000000000000000000, 2.595000000000023288, 0.0000000000000000000 ) ) ;
#216 = ORIENTED_EDGE ( 'NONE', *, *, #139, .T. ) ;
#217 = CARTESIAN_POINT ( 'NONE',  ( -1.109578260210270856E-30, 3.891876636007555470E-32, -3.177958443787410404E-16 ) ) ;
#218 = CYLINDRICAL_SURFACE ( 'NONE', #7, 1.999999999999996669 ) ;
#219 = AXIS2_PLACEMENT_3D ( 'NONE', #24, #102, #150 ) ;
#220 = EDGE_LOOP ( 'NONE', ( #33 ) ) ;
#221 = CARTESIAN_POINT ( 'NONE',  ( 2.779219145719134403E-13, 1.999999999999991340, 79.60000000000000853 ) ) ;
#222 = EDGE_LOOP ( 'NONE', ( #174 ) ) ;
#223 = LOCAL_TIME ( 13, 58, 13.00000000000000000, #53 ) ;
#224 = PERSON_AND_ORGANIZATION_ROLE ( 'creator' ) ;
#225 = ADVANCED_FACE ( 'NONE', ( #235, #83 ), #213, .T. ) ;
#226 = DATE_AND_TIME ( #169, #229 ) ;
#227 = DIRECTION ( 'NONE',  ( 4.275831445896959482E-31, 1.000000000000000000, 1.224646799147353207E-16 ) ) ;
#228 = CALENDAR_DATE ( 2021, 2, 12 ) ;
#229 = LOCAL_TIME ( 13, 58, 13.00000000000000000, #23 ) ;
#230 = FACE_OUTER_BOUND ( 'NONE', #199, .T. ) ;
#231 = AXIS2_PLACEMENT_3D ( 'NONE', #192, #160, #143 ) ;
#232 = CIRCLE ( 'NONE', #236, 2.595000000000023288 ) ;
#233 = AXIS2_PLACEMENT_3D ( 'NONE', #92, #67, #129 ) ;
#234 = APPROVAL ( #5, 'UNSPECIFIED' ) ;
#235 = FACE_OUTER_BOUND ( 'NONE', #30, .T. ) ;
#236 = AXIS2_PLACEMENT_3D ( 'NONE', #152, #120, #227 ) ;
#237 = CARTESIAN_POINT ( 'NONE',  ( 2.793185071074506684E-13, -9.797174393178826052E-15, 80.00000000000000000 ) ) ;
#238 = CARTESIAN_POINT ( 'NONE',  ( 4.189777606611760026E-14, 2.995000000000023643, 12.00000000000000000 ) ) ;
#239 = DIRECTION ( 'NONE',  ( 4.275831445896958607E-31, 1.000000000000000000, 1.224646799147353207E-16 ) ) ;
#240 = CARTESIAN_POINT ( 'NONE',  ( 4.791496202330991591E-14, 1.999999999999990452, 13.72339055353108428 ) ) ;
#241 = DIRECTION ( 'NONE',  ( -3.491481338843133355E-15, 1.224646799147353207E-16, -1.000000000000000000 ) ) ;
#242 = ORIENTED_EDGE ( 'NONE', *, *, #167, .F. ) ;
#243 = PERSON_AND_ORGANIZATION_ROLE ( 'design_supplier' ) ;
ENDSEC;
END-ISO-10303-21;
