ISO-10303-21;
HEADER;
FILE_DESCRIPTION (( 'STEP AP203' ),
    '1' );
FILE_NAME ('321824.step',
    '2021-12-02T12:58:13',
    ( '' ),
    ( '' ),
    'SwSTEP 2.0',
    'SolidWorks 2019',
    '' );
FILE_SCHEMA (( 'CONFIG_CONTROL_DESIGN' ));
ENDSEC;

DATA;
#1 = CARTESIAN_POINT ( 'NONE',  ( 4.788472490794714718E-14, 1.999999999999990452, 13.71473029949324030 ) ) ;
#2 = APPROVAL_STATUS ( 'not_yet_approved' ) ;
#3 = CIRCLE ( 'NONE', #91, 2.990000000000025082 ) ;
#4 = MECHANICAL_CONTEXT ( 'NONE', #93, 'mechanical' ) ;
#5 = LOCAL_TIME ( 13, 58, 13.00000000000000000, #49 ) ;
#6 = CALENDAR_DATE ( 2021, 2, 12 ) ;
#7 = ORIENTED_EDGE ( 'NONE', *, *, #175, .F. ) ;
#8 = ORIENTED_EDGE ( 'NONE', *, *, #135, .T. ) ;
#9 = COORDINATED_UNIVERSAL_TIME_OFFSET ( 1, 0, .AHEAD. ) ;
#10 = FACE_OUTER_BOUND ( 'NONE', #118, .T. ) ;
#11 = EDGE_CURVE ( 'NONE', #219, #219, #3, .T. ) ;
#12 = ADVANCED_FACE ( 'NONE', ( #18 ), #210, .F. ) ;
#13 = CARTESIAN_POINT ( 'NONE',  ( -1.107440344487322559E-30, 3.884377837094247222E-32, -3.171835209791674022E-16 ) ) ;
#14 = LOCAL_TIME ( 13, 58, 13.00000000000000000, #212 ) ;
#15 = AXIS2_PLACEMENT_3D ( 'NONE', #139, #209, #46 ) ;
#16 = FACE_OUTER_BOUND ( 'NONE', #167, .T. ) ;
#17 = DIRECTION ( 'NONE',  ( -4.275831445896958607E-31, -1.000000000000000000, -1.224646799147353207E-16 ) ) ;
#18 = FACE_OUTER_BOUND ( 'NONE', #130, .T. ) ;
#19 = SECURITY_CLASSIFICATION ( '', '', #88 ) ;
#20 = FACE_OUTER_BOUND ( 'NONE', #28, .T. ) ;
#21 = DIRECTION ( 'NONE',  ( -3.491481338843133355E-15, 1.224646799147353207E-16, -1.000000000000000000 ) ) ;
#22 = APPROVAL_DATE_TIME ( #66, #111 ) ;
#23 = CC_DESIGN_PERSON_AND_ORGANIZATION_ASSIGNMENT ( #168, #199, ( #43 ) ) ;
#24 = APPROVAL_ROLE ( '' ) ;
#25 = EDGE_LOOP ( 'NONE', ( #89 ) ) ;
#26 = COORDINATED_UNIVERSAL_TIME_OFFSET ( 1, 0, .AHEAD. ) ;
#27 = PRODUCT_DEFINITION_SHAPE ( 'NONE', 'NONE',  #43 ) ;
#28 = EDGE_LOOP ( 'NONE', ( #126 ) ) ;
#29 = ADVANCED_FACE ( 'NONE', ( #81, #155 ), #67, .T. ) ;
#30 = CALENDAR_DATE ( 2021, 2, 12 ) ;
#31 = AXIS2_PLACEMENT_3D ( 'NONE', #102, #60, #39 ) ;
#32 = VERTEX_POINT ( 'NONE', #97 ) ;
#33 = APPROVAL ( #106, 'UNSPECIFIED' ) ;
#34 = FACE_OUTER_BOUND ( 'NONE', #180, .T. ) ;
#35 = DIRECTION ( 'NONE',  ( 3.491481338843133355E-15, -1.224646799147353207E-16, 1.000000000000000000 ) ) ;
#36 =( NAMED_UNIT ( * ) SI_UNIT ( $, .STERADIAN. ) SOLID_ANGLE_UNIT ( ) );
#37 = AXIS2_PLACEMENT_3D ( 'NONE', #62, #205, #242 ) ;
#38 = DIRECTION ( 'NONE',  ( -3.491481338843133355E-15, 1.224646799147353207E-16, -1.000000000000000000 ) ) ;
#39 = DIRECTION ( 'NONE',  ( 4.275831445896958607E-31, 1.000000000000000000, 1.224646799147353207E-16 ) ) ;
#40 = VERTEX_POINT ( 'NONE', #101 ) ;
#41 = FACE_OUTER_BOUND ( 'NONE', #148, .T. ) ;
#42 =( LENGTH_UNIT ( ) NAMED_UNIT ( * ) SI_UNIT ( .MILLI., .METRE. ) );
#43 = PRODUCT_DEFINITION ( 'UNKNOWN', '', #45, #215 ) ;
#44 = LOCAL_TIME ( 13, 58, 13.00000000000000000, #83 ) ;
#45 = PRODUCT_DEFINITION_FORMATION_WITH_SPECIFIED_SOURCE ( 'ANY', '', #143, .NOT_KNOWN. ) ;
#46 = DIRECTION ( 'NONE',  ( 0.0000000000000000000, 1.000000000000000000, 0.0000000000000000000 ) ) ;
#47 = CARTESIAN_POINT ( 'NONE',  ( 0.0000000000000000000, 0.0000000000000000000, 0.0000000000000000000 ) ) ;
#48 = CIRCLE ( 'NONE', #222, 2.990000000000025082 ) ;
#49 = COORDINATED_UNIVERSAL_TIME_OFFSET ( 1, 0, .AHEAD. ) ;
#50 = APPLICATION_PROTOCOL_DEFINITION ( 'international standard', 'config_control_design', 1994, #93 ) ;
#51 = CONICAL_SURFACE ( 'NONE', #191, 2.590000000000023839, 0.7853981633974504994 ) ;
#52 = EDGE_LOOP ( 'NONE', ( #179 ) ) ;
#53 = APPROVAL_ROLE ( '' ) ;
#54 = AXIS2_PLACEMENT_3D ( 'NONE', #47, #124, #86 ) ;
#55 = APPROVAL_PERSON_ORGANIZATION ( #176, #111, #236 ) ;
#56 = VERTEX_POINT ( 'NONE', #1 ) ;
#57 = ORIENTED_EDGE ( 'NONE', *, *, #74, .F. ) ;
#58 = PLANE ( 'NONE',  #129 ) ;
#59 = AXIS2_PLACEMENT_3D ( 'NONE', #204, #96, #63 ) ;
#60 = DIRECTION ( 'NONE',  ( -3.491481338843133355E-15, 1.224646799147353207E-16, -1.000000000000000000 ) ) ;
#61 = EDGE_CURVE ( 'NONE', #32, #32, #90, .T. ) ;
#62 = CARTESIAN_POINT ( 'NONE',  ( 2.779219145719134403E-13, -9.748188521212932624E-15, 79.60000000000000853 ) ) ;
#63 = DIRECTION ( 'NONE',  ( 0.0000000000000000000, 1.000000000000000000, 0.0000000000000000000 ) ) ;
#64 = AXIS2_PLACEMENT_3D ( 'NONE', #99, #77, #120 ) ;
#65 = PRODUCT_RELATED_PRODUCT_CATEGORY ( 'detail', '', ( #143 ) ) ;
#66 = DATE_AND_TIME ( #122, #5 ) ;
#67 = CONICAL_SURFACE ( 'NONE', #160, 2.990000000000025082, 0.5235987755983001479 ) ;
#68 = APPLICATION_PROTOCOL_DEFINITION ( 'international standard', 'config_control_design', 1994, #107 ) ;
#69 = PERSON ( 'UNSPECIFIED', 'UNSPECIFIED', 'UNSPECIFIED', ('UNSPECIFIED'), ('UNSPECIFIED'), ('UNSPECIFIED') ) ;
#70 = CARTESIAN_POINT ( 'NONE',  ( 4.189777606611760026E-14, 2.990000000000023750, 12.00000000000000000 ) ) ;
#71 = AXIS2_PLACEMENT_3D ( 'NONE', #161, #21, #98 ) ;
#72 = ORIENTED_EDGE ( 'NONE', *, *, #11, .T. ) ;
#73 = DATE_TIME_ROLE ( 'creation_date' ) ;
#74 = EDGE_CURVE ( 'NONE', #194, #194, #197, .T. ) ;
#75 = ADVANCED_FACE ( 'NONE', ( #20 ), #162, .F. ) ;
#76 = FACE_BOUND ( 'NONE', #25, .T. ) ;
#77 = DIRECTION ( 'NONE',  ( 3.491481338843133355E-15, -1.224646799147353207E-16, 1.000000000000000000 ) ) ;
#78 = DIRECTION ( 'NONE',  ( -3.491481338843133355E-15, 1.224646799147353207E-16, -1.000000000000000000 ) ) ;
#79 = CARTESIAN_POINT ( 'NONE',  ( 2.793185071074506684E-13, -9.797174393178826052E-15, 80.00000000000000000 ) ) ;
#80 = DIRECTION ( 'NONE',  ( -3.491481338843133355E-15, 1.224646799147353207E-16, -1.000000000000000000 ) ) ;
#81 = FACE_BOUND ( 'NONE', #132, .T. ) ;
#82 = DIRECTION ( 'NONE',  ( 4.275831445896958607E-31, 1.000000000000000000, 1.224646799147353454E-16 ) ) ;
#83 = COORDINATED_UNIVERSAL_TIME_OFFSET ( 1, 0, .AHEAD. ) ;
#84 = DATE_AND_TIME ( #164, #125 ) ;
#85 = ORGANIZATION ( 'UNSPECIFIED', 'UNSPECIFIED', '' ) ;
#86 = DIRECTION ( 'NONE',  ( 1.000000000000000000, 0.0000000000000000000, 0.0000000000000000000 ) ) ;
#87 = PERSON_AND_ORGANIZATION ( #69, #85 ) ;
#88 = SECURITY_CLASSIFICATION_LEVEL ( 'unclassified' ) ;
#89 = ORIENTED_EDGE ( 'NONE', *, *, #188, .T. ) ;
#90 = CIRCLE ( 'NONE', #37, 2.000000000000000888 ) ;
#91 = AXIS2_PLACEMENT_3D ( 'NONE', #225, #239, #141 ) ;
#92 = FACE_BOUND ( 'NONE', #198, .T. ) ;
#93 = APPLICATION_CONTEXT ( 'configuration controlled 3d designs of mechanical parts and assemblies' ) ;
#94 = AXIS2_PLACEMENT_3D ( 'NONE', #190, #220, #103 ) ;
#95 = CC_DESIGN_APPROVAL ( #33, ( #45 ) ) ;
#96 = DIRECTION ( 'NONE',  ( -3.491481338843133355E-15, 1.224646799147353207E-16, -1.000000000000000000 ) ) ;
#97 = CARTESIAN_POINT ( 'NONE',  ( 2.779219145719134403E-13, 1.999999999999991340, 79.60000000000000853 ) ) ;
#98 = DIRECTION ( 'NONE',  ( 4.275831445896958607E-31, 1.000000000000000000, 1.224646799147353207E-16 ) ) ;
#99 = CARTESIAN_POINT ( 'NONE',  ( 4.189777606611760026E-14, 2.242140875079494312E-32, 12.00000000000000000 ) ) ;
#100 = CC_DESIGN_APPROVAL ( #111, ( #19 ) ) ;
#101 = CARTESIAN_POINT ( 'NONE',  ( 2.793185071074506684E-13, 1.599999999999991207, 80.00000000000000000 ) ) ;
#102 = CARTESIAN_POINT ( 'NONE',  ( 0.0000000000000000000, 0.0000000000000000000, 0.0000000000000000000 ) ) ;
#103 = DIRECTION ( 'NONE',  ( 4.275831445896958607E-31, 1.000000000000000000, 1.224646799147353207E-16 ) ) ;
#104 = CC_DESIGN_PERSON_AND_ORGANIZATION_ASSIGNMENT ( #113, #166, ( #45 ) ) ;
#105 = CONICAL_SURFACE ( 'NONE', #121, 1.600000000000000977, 0.7853981633974512766 ) ;
#106 = APPROVAL_STATUS ( 'not_yet_approved' ) ;
#107 = APPLICATION_CONTEXT ( 'configuration controlled 3d designs of mechanical parts and assemblies' ) ;
#108 = PERSON_AND_ORGANIZATION ( #69, #85 ) ;
#109 = EDGE_LOOP ( 'NONE', ( #8 ) ) ;
#110 = APPROVAL_DATE_TIME ( #217, #33 ) ;
#111 = APPROVAL ( #2, 'UNSPECIFIED' ) ;
#112 = APPROVAL_DATE_TIME ( #127, #128 ) ;
#113 = PERSON_AND_ORGANIZATION ( #69, #85 ) ;
#114 =( GEOMETRIC_REPRESENTATION_CONTEXT ( 3 ) GLOBAL_UNCERTAINTY_ASSIGNED_CONTEXT ( ( #218 ) ) GLOBAL_UNIT_ASSIGNED_CONTEXT ( ( #42, #140, #36 ) ) REPRESENTATION_CONTEXT ( 'NONE', 'WORKASPACE' ) );
#115 = DIRECTION ( 'NONE',  ( 0.0000000000000000000, 1.000000000000000000, 0.0000000000000000000 ) ) ;
#116 = CARTESIAN_POINT ( 'NONE',  ( 1.396592535537252553E-15, 2.990000000000025082, 0.3999999999999997446 ) ) ;
#117 = ORIENTED_EDGE ( 'NONE', *, *, #61, .F. ) ;
#118 = EDGE_LOOP ( 'NONE', ( #117 ) ) ;
#119 = FACE_OUTER_BOUND ( 'NONE', #214, .T. ) ;
#120 = DIRECTION ( 'NONE',  ( -4.275831445896958607E-31, -1.000000000000000000, -1.224646799147353207E-16 ) ) ;
#121 = AXIS2_PLACEMENT_3D ( 'NONE', #79, #203, #156 ) ;
#122 = CALENDAR_DATE ( 2021, 2, 12 ) ;
#123 = VERTEX_POINT ( 'NONE', #70 ) ;
#124 = DIRECTION ( 'NONE',  ( 0.0000000000000000000, 0.0000000000000000000, 1.000000000000000000 ) ) ;
#125 = LOCAL_TIME ( 13, 58, 13.00000000000000000, #26 ) ;
#126 = ORIENTED_EDGE ( 'NONE', *, *, #188, .F. ) ;
#127 = DATE_AND_TIME ( #30, #44 ) ;
#128 = APPROVAL ( #213, 'UNSPECIFIED' ) ;
#129 = AXIS2_PLACEMENT_3D ( 'NONE', #137, #187, #17 ) ;
#130 = EDGE_LOOP ( 'NONE', ( #171 ) ) ;
#131 = MANIFOLD_SOLID_BREP ( 'Corps-Déplacer/Copier1[2]', #165 ) ;
#132 = EDGE_LOOP ( 'NONE', ( #216 ) ) ;
#133 = PERSON_AND_ORGANIZATION ( #69, #85 ) ;
#134 = CIRCLE ( 'NONE', #172, 1.999999999999992228 ) ;
#135 = EDGE_CURVE ( 'NONE', #123, #123, #150, .T. ) ;
#136 = CARTESIAN_POINT ( 'NONE',  ( 4.788472490794714718E-14, -1.679570056244361602E-15, 13.71473029949324030 ) ) ;
#137 = CARTESIAN_POINT ( 'NONE',  ( 4.189777606611760026E-14, 2.242140875079494312E-32, 12.00000000000000000 ) ) ;
#138 = CYLINDRICAL_SURFACE ( 'NONE', #31, 1.999999999999996669 ) ;
#139 = CARTESIAN_POINT ( 'NONE',  ( 4.189777606611760026E-14, -1.469576158976823947E-15, 12.00000000000000000 ) ) ;
#140 =( NAMED_UNIT ( * ) PLANE_ANGLE_UNIT ( ) SI_UNIT ( $, .RADIAN. ) );
#141 = DIRECTION ( 'NONE',  ( 4.508866090538641369E-31, 1.000000000000000000, 1.269132977825830647E-16 ) ) ;
#142 = ADVANCED_FACE ( 'NONE', ( #34, #41 ), #138, .T. ) ;
#143 = PRODUCT ( '321824', '321824', '', ( #4 ) ) ;
#144 = FACE_OUTER_BOUND ( 'NONE', #226, .T. ) ;
#145 = AXIS2_PLACEMENT_3D ( 'NONE', #221, #208, #170 ) ;
#146 = PERSON_AND_ORGANIZATION ( #69, #85 ) ;
#147 = CC_DESIGN_PERSON_AND_ORGANIZATION_ASSIGNMENT ( #133, #202, ( #45 ) ) ;
#148 = EDGE_LOOP ( 'NONE', ( #235 ) ) ;
#149 = SHAPE_DEFINITION_REPRESENTATION ( #27, #182 ) ;
#150 = CIRCLE ( 'NONE', #15, 2.990000000000025082 ) ;
#151 = ORIENTED_EDGE ( 'NONE', *, *, #195, .F. ) ;
#152 = PERSON_AND_ORGANIZATION ( #69, #85 ) ;
#153 = ADVANCED_FACE ( 'NONE', ( #119 ), #192, .T. ) ;
#154 = APPROVAL_PERSON_ORGANIZATION ( #146, #128, #24 ) ;
#155 = FACE_OUTER_BOUND ( 'NONE', #232, .T. ) ;
#156 = DIRECTION ( 'NONE',  ( 0.0000000000000000000, 1.000000000000000000, 0.0000000000000000000 ) ) ;
#157 = CC_DESIGN_DATE_AND_TIME_ASSIGNMENT ( #196, #178, ( #19 ) ) ;
#158 = FACE_OUTER_BOUND ( 'NONE', #52, .T. ) ;
#159 = DIRECTION ( 'NONE',  ( 0.0000000000000000000, 1.000000000000000000, 0.0000000000000000000 ) ) ;
#160 = AXIS2_PLACEMENT_3D ( 'NONE', #241, #80, #159 ) ;
#161 = CARTESIAN_POINT ( 'NONE',  ( -1.107440344487322559E-30, 3.884377837094247222E-32, -3.171835209791674022E-16 ) ) ;
#162 = PLANE ( 'NONE',  #145 ) ;
#163 = CIRCLE ( 'NONE', #59, 1.600000000000000977 ) ;
#164 = CALENDAR_DATE ( 2021, 2, 12 ) ;
#165 = CLOSED_SHELL ( 'NONE', ( #211, #223, #153, #228 ) ) ;
#166 = PERSON_AND_ORGANIZATION_ROLE ( 'design_supplier' ) ;
#167 = EDGE_LOOP ( 'NONE', ( #200 ) ) ;
#168 = PERSON_AND_ORGANIZATION ( #69, #85 ) ;
#169 = CC_DESIGN_PERSON_AND_ORGANIZATION_ASSIGNMENT ( #108, #231, ( #143 ) ) ;
#170 = DIRECTION ( 'NONE',  ( 4.275831445896958607E-31, 1.000000000000000000, 1.224646799147353207E-16 ) ) ;
#171 = ORIENTED_EDGE ( 'NONE', *, *, #195, .T. ) ;
#172 = AXIS2_PLACEMENT_3D ( 'NONE', #136, #227, #115 ) ;
#173 = DIRECTION ( 'NONE',  ( 0.0000000000000000000, 1.000000000000000000, 0.0000000000000000000 ) ) ;
#174 = VERTEX_POINT ( 'NONE', #186 ) ;
#175 = EDGE_CURVE ( 'NONE', #56, #56, #134, .T. ) ;
#176 = PERSON_AND_ORGANIZATION ( #69, #85 ) ;
#177 = CC_DESIGN_SECURITY_CLASSIFICATION ( #19, ( #45 ) ) ;
#178 = DATE_TIME_ROLE ( 'classification_date' ) ;
#179 = ORIENTED_EDGE ( 'NONE', *, *, #135, .F. ) ;
#180 = EDGE_LOOP ( 'NONE', ( #7 ) ) ;
#181 = LOCAL_TIME ( 13, 58, 13.00000000000000000, #9 ) ;
#182 = ADVANCED_BREP_SHAPE_REPRESENTATION ( '321824', ( #207, #131, #54 ), #114 ) ;
#183 = CC_DESIGN_DATE_AND_TIME_ASSIGNMENT ( #84, #73, ( #43 ) ) ;
#184 = FACE_OUTER_BOUND ( 'NONE', #109, .T. ) ;
#185 = APPROVAL_PERSON_ORGANIZATION ( #152, #33, #53 ) ;
#186 = CARTESIAN_POINT ( 'NONE',  ( 4.189777606611760026E-14, 2.990000000000023750, 12.00000000000000000 ) ) ;
#187 = DIRECTION ( 'NONE',  ( 3.491481338843133355E-15, -1.224646799147353207E-16, 1.000000000000000000 ) ) ;
#188 = EDGE_CURVE ( 'NONE', #40, #40, #163, .T. ) ;
#189 = CARTESIAN_POINT ( 'NONE',  ( 4.189777606611760026E-14, -1.469576158976823947E-15, 12.00000000000000000 ) ) ;
#190 = CARTESIAN_POINT ( 'NONE',  ( -5.537201722436612797E-31, 1.942188918547123611E-32, -1.585917604895837011E-16 ) ) ;
#191 = AXIS2_PLACEMENT_3D ( 'NONE', #13, #35, #237 ) ;
#192 = PLANE ( 'NONE',  #94 ) ;
#193 = CLOSED_SHELL ( 'NONE', ( #12, #29, #142, #229, #75 ) ) ;
#194 = VERTEX_POINT ( 'NONE', #206 ) ;
#195 = EDGE_CURVE ( 'NONE', #174, #174, #48, .T. ) ;
#196 = DATE_AND_TIME ( #233, #181 ) ;
#197 = CIRCLE ( 'NONE', #71, 2.590000000000023839 ) ;
#198 = EDGE_LOOP ( 'NONE', ( #57 ) ) ;
#199 = PERSON_AND_ORGANIZATION_ROLE ( 'creator' ) ;
#200 = ORIENTED_EDGE ( 'NONE', *, *, #11, .F. ) ;
#201 = ORIENTED_EDGE ( 'NONE', *, *, #74, .T. ) ;
#202 = PERSON_AND_ORGANIZATION_ROLE ( 'creator' ) ;
#203 = DIRECTION ( 'NONE',  ( -3.491481338843133355E-15, 1.224646799147353207E-16, -1.000000000000000000 ) ) ;
#204 = CARTESIAN_POINT ( 'NONE',  ( 2.793185071074506684E-13, -9.797174393178826052E-15, 80.00000000000000000 ) ) ;
#205 = DIRECTION ( 'NONE',  ( -3.491481338843133355E-15, 1.224646799147353207E-16, -1.000000000000000000 ) ) ;
#206 = CARTESIAN_POINT ( 'NONE',  ( 0.0000000000000000000, 2.590000000000023839, 0.0000000000000000000 ) ) ;
#207 = MANIFOLD_SOLID_BREP ( 'Corps-Déplacer/Copier1[1]', #193 ) ;
#208 = DIRECTION ( 'NONE',  ( -3.491481338843133355E-15, 1.224646799147353207E-16, -1.000000000000000000 ) ) ;
#209 = DIRECTION ( 'NONE',  ( -3.491481338843133355E-15, 1.224646799147353207E-16, -1.000000000000000000 ) ) ;
#210 = PLANE ( 'NONE',  #64 ) ;
#211 = ADVANCED_FACE ( 'NONE', ( #184, #16 ), #240, .T. ) ;
#212 = COORDINATED_UNIVERSAL_TIME_OFFSET ( 1, 0, .AHEAD. ) ;
#213 = APPROVAL_STATUS ( 'not_yet_approved' ) ;
#214 = EDGE_LOOP ( 'NONE', ( #201 ) ) ;
#215 = DESIGN_CONTEXT ( 'detailed design', #107, 'design' ) ;
#216 = ORIENTED_EDGE ( 'NONE', *, *, #175, .T. ) ;
#217 = DATE_AND_TIME ( #6, #14 ) ;
#218 = UNCERTAINTY_MEASURE_WITH_UNIT (LENGTH_MEASURE( 1.000000000000000082E-05 ), #42, 'distance_accuracy_value', 'NONE');
#219 = VERTEX_POINT ( 'NONE', #116 ) ;
#220 = DIRECTION ( 'NONE',  ( -3.491481338843133355E-15, 1.224646799147353207E-16, -1.000000000000000000 ) ) ;
#221 = CARTESIAN_POINT ( 'NONE',  ( 2.793185071074506684E-13, 1.199807826129472128E-32, 80.00000000000000000 ) ) ;
#222 = AXIS2_PLACEMENT_3D ( 'NONE', #189, #38, #173 ) ;
#223 = ADVANCED_FACE ( 'NONE', ( #158 ), #58, .T. ) ;
#224 = AXIS2_PLACEMENT_3D ( 'NONE', #243, #78, #82 ) ;
#225 = CARTESIAN_POINT ( 'NONE',  ( 1.396592535537251173E-15, -4.898587196589405063E-17, 0.3999999999999993561 ) ) ;
#226 = EDGE_LOOP ( 'NONE', ( #72 ) ) ;
#227 = DIRECTION ( 'NONE',  ( -3.491481338843133355E-15, 1.224646799147353207E-16, -1.000000000000000000 ) ) ;
#228 = ADVANCED_FACE ( 'NONE', ( #144, #92 ), #51, .T. ) ;
#229 = ADVANCED_FACE ( 'NONE', ( #10, #76 ), #105, .T. ) ;
#230 = PERSON_AND_ORGANIZATION_ROLE ( 'classification_officer' ) ;
#231 = PERSON_AND_ORGANIZATION_ROLE ( 'design_owner' ) ;
#232 = EDGE_LOOP ( 'NONE', ( #151 ) ) ;
#233 = CALENDAR_DATE ( 2021, 2, 12 ) ;
#234 = CC_DESIGN_PERSON_AND_ORGANIZATION_ASSIGNMENT ( #87, #230, ( #19 ) ) ;
#235 = ORIENTED_EDGE ( 'NONE', *, *, #61, .T. ) ;
#236 = APPROVAL_ROLE ( '' ) ;
#237 = DIRECTION ( 'NONE',  ( -4.275831445896958607E-31, -1.000000000000000000, -1.224646799147353207E-16 ) ) ;
#238 = CC_DESIGN_APPROVAL ( #128, ( #43 ) ) ;
#239 = DIRECTION ( 'NONE',  ( -3.491481338843133355E-15, 1.224646799147353207E-16, -1.000000000000000000 ) ) ;
#240 = CYLINDRICAL_SURFACE ( 'NONE', #224, 2.990000000000025082 ) ;
#241 = CARTESIAN_POINT ( 'NONE',  ( 4.189777606611760026E-14, -1.469576158976823947E-15, 12.00000000000000000 ) ) ;
#242 = DIRECTION ( 'NONE',  ( 0.0000000000000000000, 1.000000000000000000, 0.0000000000000000000 ) ) ;
#243 = CARTESIAN_POINT ( 'NONE',  ( 0.0000000000000000000, 0.0000000000000000000, 0.0000000000000000000 ) ) ;
ENDSEC;
END-ISO-10303-21;
