ISO-10303-21;
HEADER;
FILE_DESCRIPTION (( 'STEP AP203' ),
    '1' );
FILE_NAME ('321823.step',
    '2021-12-02T12:58:12',
    ( '' ),
    ( '' ),
    'SwSTEP 2.0',
    'SolidWorks 2019',
    '' );
FILE_SCHEMA (( 'CONFIG_CONTROL_DESIGN' ));
ENDSEC;

DATA;
#1 = ORIENTED_EDGE ( 'NONE', *, *, #93, .T. ) ;
#2 = DATE_AND_TIME ( #83, #74 ) ;
#3 = DIRECTION ( 'NONE',  ( -3.491481338843133355E-15, 1.224646799147353207E-16, -1.000000000000000000 ) ) ;
#4 = CC_DESIGN_DATE_AND_TIME_ASSIGNMENT ( #51, #187, ( #176 ) ) ;
#5 = DIRECTION ( 'NONE',  ( -4.275831445896958607E-31, -1.000000000000000000, -1.224646799147353207E-16 ) ) ;
#6 = DIRECTION ( 'NONE',  ( -3.491481338843133355E-15, 1.224646799147353207E-16, -1.000000000000000000 ) ) ;
#7 = CARTESIAN_POINT ( 'NONE',  ( 1.396592535537252750E-15, -4.898587196589410610E-17, 0.3999999999999998002 ) ) ;
#8 = ADVANCED_FACE ( 'NONE', ( #26, #197 ), #59, .T. ) ;
#9 = COORDINATED_UNIVERSAL_TIME_OFFSET ( 1, 0, .AHEAD. ) ;
#10 = DIRECTION ( 'NONE',  ( -3.491481338843133355E-15, 1.224646799147353207E-16, -1.000000000000000000 ) ) ;
#11 = FACE_OUTER_BOUND ( 'NONE', #54, .T. ) ;
#12 = VERTEX_POINT ( 'NONE', #201 ) ;
#13 = CC_DESIGN_PERSON_AND_ORGANIZATION_ASSIGNMENT ( #115, #40, ( #45 ) ) ;
#14 = PERSON_AND_ORGANIZATION ( #31, #154 ) ;
#15 = CARTESIAN_POINT ( 'NONE',  ( 1.396592535537254131E-15, 2.985000000000025633, 0.4000000000000001887 ) ) ;
#16 = ORIENTED_EDGE ( 'NONE', *, *, #93, .F. ) ;
#17 = LOCAL_TIME ( 13, 58, 12.00000000000000000, #199 ) ;
#18 = UNCERTAINTY_MEASURE_WITH_UNIT (LENGTH_MEASURE( 1.000000000000000082E-05 ), #146, 'distance_accuracy_value', 'NONE');
#19 = CIRCLE ( 'NONE', #216, 2.000000000000000888 ) ;
#20 = DIRECTION ( 'NONE',  ( -3.491481338843133355E-15, 1.224646799147353207E-16, -1.000000000000000000 ) ) ;
#21 = CARTESIAN_POINT ( 'NONE',  ( 2.793185071074506684E-13, -9.797174393178826052E-15, 80.00000000000000000 ) ) ;
#22 = PRODUCT_DEFINITION_SHAPE ( 'NONE', 'NONE',  #176 ) ;
#23 = FACE_BOUND ( 'NONE', #181, .T. ) ;
#24 = PERSON_AND_ORGANIZATION ( #31, #154 ) ;
#25 = EDGE_LOOP ( 'NONE', ( #207 ) ) ;
#26 = FACE_OUTER_BOUND ( 'NONE', #57, .T. ) ;
#27 = DIRECTION ( 'NONE',  ( 0.0000000000000000000, 0.0000000000000000000, 1.000000000000000000 ) ) ;
#28 = PERSON_AND_ORGANIZATION ( #31, #154 ) ;
#29 = CARTESIAN_POINT ( 'NONE',  ( 0.0000000000000000000, 2.585000000000023945, 0.0000000000000000000 ) ) ;
#30 = DATE_AND_TIME ( #239, #17 ) ;
#31 = PERSON ( 'UNSPECIFIED', 'UNSPECIFIED', 'UNSPECIFIED', ('UNSPECIFIED'), ('UNSPECIFIED'), ('UNSPECIFIED') ) ;
#32 = AXIS2_PLACEMENT_3D ( 'NONE', #184, #163, #166 ) ;
#33 = VERTEX_POINT ( 'NONE', #218 ) ;
#34 = ORIENTED_EDGE ( 'NONE', *, *, #102, .T. ) ;
#35 = LOCAL_TIME ( 13, 58, 12.00000000000000000, #151 ) ;
#36 = PERSON_AND_ORGANIZATION_ROLE ( 'design_supplier' ) ;
#37 = ORIENTED_EDGE ( 'NONE', *, *, #148, .T. ) ;
#38 = FACE_OUTER_BOUND ( 'NONE', #175, .T. ) ;
#39 = CIRCLE ( 'NONE', #114, 1.999999999999992228 ) ;
#40 = PERSON_AND_ORGANIZATION_ROLE ( 'creator' ) ;
#41 = DIRECTION ( 'NONE',  ( 4.275831445896958607E-31, 1.000000000000000000, 1.224646799147353207E-16 ) ) ;
#42 = APPLICATION_CONTEXT ( 'configuration controlled 3d designs of mechanical parts and assemblies' ) ;
#43 = DIRECTION ( 'NONE',  ( 0.0000000000000000000, 1.000000000000000000, 0.0000000000000000000 ) ) ;
#44 = FACE_OUTER_BOUND ( 'NONE', #170, .T. ) ;
#45 = PRODUCT_DEFINITION_FORMATION_WITH_SPECIFIED_SOURCE ( 'ANY', '', #135, .NOT_KNOWN. ) ;
#46 = CYLINDRICAL_SURFACE ( 'NONE', #56, 1.999999999999996669 ) ;
#47 = APPROVAL ( #161, 'UNSPECIFIED' ) ;
#48 = AXIS2_PLACEMENT_3D ( 'NONE', #182, #63, #214 ) ;
#49 = FACE_BOUND ( 'NONE', #228, .T. ) ;
#50 = MECHANICAL_CONTEXT ( 'NONE', #42, 'mechanical' ) ;
#51 = DATE_AND_TIME ( #149, #69 ) ;
#52 = CIRCLE ( 'NONE', #136, 1.600000000000000977 ) ;
#53 = ORIENTED_EDGE ( 'NONE', *, *, #225, .T. ) ;
#54 = EDGE_LOOP ( 'NONE', ( #34 ) ) ;
#55 = APPROVAL ( #223, 'UNSPECIFIED' ) ;
#56 = AXIS2_PLACEMENT_3D ( 'NONE', #211, #125, #41 ) ;
#57 = EDGE_LOOP ( 'NONE', ( #173 ) ) ;
#58 = APPROVAL ( #203, 'UNSPECIFIED' ) ;
#59 = CYLINDRICAL_SURFACE ( 'NONE', #77, 2.985000000000025633 ) ;
#60 = APPROVAL_DATE_TIME ( #2, #47 ) ;
#61 = FACE_BOUND ( 'NONE', #76, .T. ) ;
#62 = ORIENTED_EDGE ( 'NONE', *, *, #75, .T. ) ;
#63 = DIRECTION ( 'NONE',  ( 3.491481338843133355E-15, -1.224646799147353207E-16, 1.000000000000000000 ) ) ;
#64 = DATE_TIME_ROLE ( 'classification_date' ) ;
#65 = FACE_OUTER_BOUND ( 'NONE', #95, .T. ) ;
#66 = CC_DESIGN_APPROVAL ( #55, ( #45 ) ) ;
#67 = PERSON_AND_ORGANIZATION ( #31, #154 ) ;
#68 = ADVANCED_FACE ( 'NONE', ( #105, #141 ), #46, .T. ) ;
#69 = LOCAL_TIME ( 13, 58, 12.00000000000000000, #168 ) ;
#70 = APPLICATION_PROTOCOL_DEFINITION ( 'international standard', 'config_control_design', 1994, #158 ) ;
#71 = ADVANCED_FACE ( 'NONE', ( #44 ), #235, .T. ) ;
#72 =( NAMED_UNIT ( * ) PLANE_ANGLE_UNIT ( ) SI_UNIT ( $, .RADIAN. ) );
#73 = CALENDAR_DATE ( 2021, 2, 12 ) ;
#74 = LOCAL_TIME ( 13, 58, 12.00000000000000000, #9 ) ;
#75 = EDGE_CURVE ( 'NONE', #164, #164, #147, .T. ) ;
#76 = EDGE_LOOP ( 'NONE', ( #188 ) ) ;
#77 = AXIS2_PLACEMENT_3D ( 'NONE', #215, #3, #178 ) ;
#78 = CARTESIAN_POINT ( 'NONE',  ( -1.105302428764373913E-30, 3.876879038180937879E-32, -3.165711975795937146E-16 ) ) ;
#79 = COORDINATED_UNIVERSAL_TIME_OFFSET ( 1, 0, .AHEAD. ) ;
#80 = PLANE ( 'NONE',  #162 ) ;
#81 = DIRECTION ( 'NONE',  ( 4.275831445896958607E-31, 1.000000000000000000, 1.224646799147353207E-16 ) ) ;
#82 = CARTESIAN_POINT ( 'NONE',  ( 4.189777606611760026E-14, -1.469576158976823947E-15, 12.00000000000000000 ) ) ;
#83 = CALENDAR_DATE ( 2021, 2, 12 ) ;
#84 = CARTESIAN_POINT ( 'NONE',  ( 2.779219145719134403E-13, -9.748188521212932624E-15, 79.60000000000000853 ) ) ;
#85 = CIRCLE ( 'NONE', #195, 2.985000000000025633 ) ;
#86 = DIRECTION ( 'NONE',  ( 3.491481338843133355E-15, -1.224646799147353207E-16, 1.000000000000000000 ) ) ;
#87 = VERTEX_POINT ( 'NONE', #222 ) ;
#88 = APPLICATION_PROTOCOL_DEFINITION ( 'international standard', 'config_control_design', 1994, #42 ) ;
#89 = AXIS2_PLACEMENT_3D ( 'NONE', #82, #157, #192 ) ;
#90 = VERTEX_POINT ( 'NONE', #15 ) ;
#91 = APPROVAL_ROLE ( '' ) ;
#92 = EDGE_LOOP ( 'NONE', ( #53 ) ) ;
#93 = EDGE_CURVE ( 'NONE', #240, #240, #19, .T. ) ;
#94 = AXIS2_PLACEMENT_3D ( 'NONE', #101, #139, #81 ) ;
#95 = EDGE_LOOP ( 'NONE', ( #62 ) ) ;
#96 = CC_DESIGN_APPROVAL ( #47, ( #205 ) ) ;
#97 = APPROVAL_PERSON_ORGANIZATION ( #193, #47, #98 ) ;
#98 = APPROVAL_ROLE ( '' ) ;
#99 = DIRECTION ( 'NONE',  ( -3.491481338843133355E-15, 1.224646799147353207E-16, -1.000000000000000000 ) ) ;
#100 = CARTESIAN_POINT ( 'NONE',  ( 4.189777606611760026E-14, 2.238391475622839640E-32, 12.00000000000000000 ) ) ;
#101 = CARTESIAN_POINT ( 'NONE',  ( 2.793185071074506684E-13, 1.199807826129472128E-32, 80.00000000000000000 ) ) ;
#102 = EDGE_CURVE ( 'NONE', #90, #90, #85, .T. ) ;
#103 = PLANE ( 'NONE',  #94 ) ;
#104 = CALENDAR_DATE ( 2021, 2, 12 ) ;
#105 = FACE_OUTER_BOUND ( 'NONE', #25, .T. ) ;
#106 = CC_DESIGN_PERSON_AND_ORGANIZATION_ASSIGNMENT ( #14, #127, ( #135 ) ) ;
#107 = APPROVAL_DATE_TIME ( #30, #58 ) ;
#108 =( NAMED_UNIT ( * ) SI_UNIT ( $, .STERADIAN. ) SOLID_ANGLE_UNIT ( ) );
#109 = PERSON_AND_ORGANIZATION_ROLE ( 'creator' ) ;
#110 = AXIS2_PLACEMENT_3D ( 'NONE', #167, #27, #242 ) ;
#111 = DIRECTION ( 'NONE',  ( 4.275831445896958607E-31, 1.000000000000000000, 1.224646799147353207E-16 ) ) ;
#112 = ORIENTED_EDGE ( 'NONE', *, *, #225, .F. ) ;
#113 = ORIENTED_EDGE ( 'NONE', *, *, #75, .F. ) ;
#114 = AXIS2_PLACEMENT_3D ( 'NONE', #212, #99, #177 ) ;
#115 = PERSON_AND_ORGANIZATION ( #31, #154 ) ;
#116 = AXIS2_PLACEMENT_3D ( 'NONE', #202, #86, #128 ) ;
#117 = CARTESIAN_POINT ( 'NONE',  ( 2.793185071074506684E-13, -9.797174393178826052E-15, 80.00000000000000000 ) ) ;
#118 = SHAPE_DEFINITION_REPRESENTATION ( #22, #237 ) ;
#119 = FACE_OUTER_BOUND ( 'NONE', #132, .T. ) ;
#120 = ADVANCED_FACE ( 'NONE', ( #23, #119 ), #227, .T. ) ;
#121 = FACE_OUTER_BOUND ( 'NONE', #92, .T. ) ;
#122 = DIRECTION ( 'NONE',  ( 4.275831445896957731E-31, 1.000000000000000000, 1.224646799147353207E-16 ) ) ;
#123 = CONICAL_SURFACE ( 'NONE', #186, 1.600000000000000977, 0.7853981633974512766 ) ;
#124 = CC_DESIGN_PERSON_AND_ORGANIZATION_ASSIGNMENT ( #28, #109, ( #176 ) ) ;
#125 = DIRECTION ( 'NONE',  ( -3.491481338843133355E-15, 1.224646799147353207E-16, -1.000000000000000000 ) ) ;
#126 = VERTEX_POINT ( 'NONE', #145 ) ;
#127 = PERSON_AND_ORGANIZATION_ROLE ( 'design_owner' ) ;
#128 = DIRECTION ( 'NONE',  ( -4.275831445896957731E-31, -1.000000000000000000, -1.224646799147353207E-16 ) ) ;
#129 = CC_DESIGN_PERSON_AND_ORGANIZATION_ASSIGNMENT ( #134, #36, ( #45 ) ) ;
#130 = APPROVAL_ROLE ( '' ) ;
#131 = PERSON_AND_ORGANIZATION ( #31, #154 ) ;
#132 = EDGE_LOOP ( 'NONE', ( #112 ) ) ;
#133 = EDGE_LOOP ( 'NONE', ( #206 ) ) ;
#134 = PERSON_AND_ORGANIZATION ( #31, #154 ) ;
#135 = PRODUCT ( '321823', '321823', '', ( #50 ) ) ;
#136 = AXIS2_PLACEMENT_3D ( 'NONE', #21, #160, #238 ) ;
#137 = DIRECTION ( 'NONE',  ( 4.516418630053780210E-31, 1.000000000000000000, 1.271258828709960661E-16 ) ) ;
#138 = PERSON_AND_ORGANIZATION_ROLE ( 'classification_officer' ) ;
#139 = DIRECTION ( 'NONE',  ( -3.491481338843133355E-15, 1.224646799147353207E-16, -1.000000000000000000 ) ) ;
#140 = ADVANCED_FACE ( 'NONE', ( #38, #61 ), #123, .T. ) ;
#141 = FACE_OUTER_BOUND ( 'NONE', #153, .T. ) ;
#142 = DIRECTION ( 'NONE',  ( -3.491481338843133355E-15, 1.224646799147353207E-16, -1.000000000000000000 ) ) ;
#143 = CARTESIAN_POINT ( 'NONE',  ( -5.526512143821869564E-31, 1.938439519090468940E-32, -1.582855987897968573E-16 ) ) ;
#144 = CIRCLE ( 'NONE', #32, 2.985000000000025189 ) ;
#145 = CARTESIAN_POINT ( 'NONE',  ( 4.785448779258437845E-14, 1.999999999999990452, 13.70607004545539631 ) ) ;
#146 =( LENGTH_UNIT ( ) NAMED_UNIT ( * ) SI_UNIT ( .MILLI., .METRE. ) );
#147 = CIRCLE ( 'NONE', #191, 2.585000000000023945 ) ;
#148 = EDGE_CURVE ( 'NONE', #126, #126, #39, .T. ) ;
#149 = CALENDAR_DATE ( 2021, 2, 12 ) ;
#150 = PRODUCT_RELATED_PRODUCT_CATEGORY ( 'detail', '', ( #135 ) ) ;
#151 = COORDINATED_UNIVERSAL_TIME_OFFSET ( 1, 0, .AHEAD. ) ;
#152 = CC_DESIGN_APPROVAL ( #58, ( #176 ) ) ;
#153 = EDGE_LOOP ( 'NONE', ( #1 ) ) ;
#154 = ORGANIZATION ( 'UNSPECIFIED', 'UNSPECIFIED', '' ) ;
#155 = CC_DESIGN_PERSON_AND_ORGANIZATION_ASSIGNMENT ( #24, #138, ( #205 ) ) ;
#156 = DIRECTION ( 'NONE',  ( 0.0000000000000000000, 1.000000000000000000, 0.0000000000000000000 ) ) ;
#157 = DIRECTION ( 'NONE',  ( -3.491481338843133355E-15, 1.224646799147353207E-16, -1.000000000000000000 ) ) ;
#158 = APPLICATION_CONTEXT ( 'configuration controlled 3d designs of mechanical parts and assemblies' ) ;
#159 = PLANE ( 'NONE',  #183 ) ;
#160 = DIRECTION ( 'NONE',  ( -3.491481338843133355E-15, 1.224646799147353207E-16, -1.000000000000000000 ) ) ;
#161 = APPROVAL_STATUS ( 'not_yet_approved' ) ;
#162 = AXIS2_PLACEMENT_3D ( 'NONE', #143, #217, #111 ) ;
#163 = DIRECTION ( 'NONE',  ( -3.491481338843133355E-15, 1.224646799147353207E-16, -1.000000000000000000 ) ) ;
#164 = VERTEX_POINT ( 'NONE', #29 ) ;
#165 = CC_DESIGN_DATE_AND_TIME_ASSIGNMENT ( #231, #64, ( #205 ) ) ;
#166 = DIRECTION ( 'NONE',  ( 0.0000000000000000000, 1.000000000000000000, 0.0000000000000000000 ) ) ;
#167 = CARTESIAN_POINT ( 'NONE',  ( 0.0000000000000000000, 0.0000000000000000000, 0.0000000000000000000 ) ) ;
#168 = COORDINATED_UNIVERSAL_TIME_OFFSET ( 1, 0, .AHEAD. ) ;
#169 = DATE_AND_TIME ( #73, #35 ) ;
#170 = EDGE_LOOP ( 'NONE', ( #180 ) ) ;
#171 = ORIENTED_EDGE ( 'NONE', *, *, #102, .F. ) ;
#172 = ADVANCED_FACE ( 'NONE', ( #121 ), #159, .F. ) ;
#173 = ORIENTED_EDGE ( 'NONE', *, *, #190, .T. ) ;
#174 = APPROVAL_PERSON_ORGANIZATION ( #67, #55, #91 ) ;
#175 = EDGE_LOOP ( 'NONE', ( #16 ) ) ;
#176 = PRODUCT_DEFINITION ( 'UNKNOWN', '', #45, #232 ) ;
#177 = DIRECTION ( 'NONE',  ( 0.0000000000000000000, 1.000000000000000000, 0.0000000000000000000 ) ) ;
#178 = DIRECTION ( 'NONE',  ( 4.275831445896958607E-31, 1.000000000000000000, 1.224646799147353207E-16 ) ) ;
#179 =( GEOMETRIC_REPRESENTATION_CONTEXT ( 3 ) GLOBAL_UNCERTAINTY_ASSIGNED_CONTEXT ( ( #18 ) ) GLOBAL_UNIT_ASSIGNED_CONTEXT ( ( #146, #72, #108 ) ) REPRESENTATION_CONTEXT ( 'NONE', 'WORKASPACE' ) );
#180 = ORIENTED_EDGE ( 'NONE', *, *, #190, .F. ) ;
#181 = EDGE_LOOP ( 'NONE', ( #37 ) ) ;
#182 = CARTESIAN_POINT ( 'NONE',  ( 4.189777606611760026E-14, 2.238391475622839640E-32, 12.00000000000000000 ) ) ;
#183 = AXIS2_PLACEMENT_3D ( 'NONE', #100, #233, #5 ) ;
#184 = CARTESIAN_POINT ( 'NONE',  ( 4.189777606611760026E-14, -1.469576158976823947E-15, 12.00000000000000000 ) ) ;
#185 = ADVANCED_FACE ( 'NONE', ( #236 ), #103, .F. ) ;
#186 = AXIS2_PLACEMENT_3D ( 'NONE', #117, #20, #43 ) ;
#187 = DATE_TIME_ROLE ( 'creation_date' ) ;
#188 = ORIENTED_EDGE ( 'NONE', *, *, #198, .T. ) ;
#189 = EDGE_LOOP ( 'NONE', ( #171 ) ) ;
#190 = EDGE_CURVE ( 'NONE', #12, #12, #241, .T. ) ;
#191 = AXIS2_PLACEMENT_3D ( 'NONE', #78, #10, #122 ) ;
#192 = DIRECTION ( 'NONE',  ( 0.0000000000000000000, 1.000000000000000000, 0.0000000000000000000 ) ) ;
#193 = PERSON_AND_ORGANIZATION ( #31, #154 ) ;
#194 = DIRECTION ( 'NONE',  ( 0.0000000000000000000, 1.000000000000000000, 0.0000000000000000000 ) ) ;
#195 = AXIS2_PLACEMENT_3D ( 'NONE', #7, #229, #137 ) ;
#196 = CARTESIAN_POINT ( 'NONE',  ( 4.189777606611760026E-14, -1.469576158976823947E-15, 12.00000000000000000 ) ) ;
#197 = FACE_OUTER_BOUND ( 'NONE', #189, .T. ) ;
#198 = EDGE_CURVE ( 'NONE', #87, #87, #52, .T. ) ;
#199 = COORDINATED_UNIVERSAL_TIME_OFFSET ( 1, 0, .AHEAD. ) ;
#200 = MANIFOLD_SOLID_BREP ( 'Corps-Déplacer/Copier1[2]', #230 ) ;
#201 = CARTESIAN_POINT ( 'NONE',  ( 4.189777606611760026E-14, 2.985000000000024301, 12.00000000000000000 ) ) ;
#202 = CARTESIAN_POINT ( 'NONE',  ( -1.105302428764373913E-30, 3.876879038180937879E-32, -3.165711975795937146E-16 ) ) ;
#203 = APPROVAL_STATUS ( 'not_yet_approved' ) ;
#204 = APPROVAL_PERSON_ORGANIZATION ( #131, #58, #130 ) ;
#205 = SECURITY_CLASSIFICATION ( '', '', #213 ) ;
#206 = ORIENTED_EDGE ( 'NONE', *, *, #198, .F. ) ;
#207 = ORIENTED_EDGE ( 'NONE', *, *, #148, .F. ) ;
#208 = ADVANCED_FACE ( 'NONE', ( #65 ), #80, .T. ) ;
#209 = MANIFOLD_SOLID_BREP ( 'Corps-Déplacer/Copier1[1]', #219 ) ;
#210 = LOCAL_TIME ( 13, 58, 12.00000000000000000, #79 ) ;
#211 = CARTESIAN_POINT ( 'NONE',  ( 0.0000000000000000000, 0.0000000000000000000, 0.0000000000000000000 ) ) ;
#212 = CARTESIAN_POINT ( 'NONE',  ( 4.785448779258437845E-14, -1.678509481005636952E-15, 13.70607004545539631 ) ) ;
#213 = SECURITY_CLASSIFICATION_LEVEL ( 'unclassified' ) ;
#214 = DIRECTION ( 'NONE',  ( -4.275831445896958607E-31, -1.000000000000000000, -1.224646799147353207E-16 ) ) ;
#215 = CARTESIAN_POINT ( 'NONE',  ( 0.0000000000000000000, 0.0000000000000000000, 0.0000000000000000000 ) ) ;
#216 = AXIS2_PLACEMENT_3D ( 'NONE', #84, #142, #156 ) ;
#217 = DIRECTION ( 'NONE',  ( -3.491481338843133355E-15, 1.224646799147353207E-16, -1.000000000000000000 ) ) ;
#218 = CARTESIAN_POINT ( 'NONE',  ( 4.189777606611760026E-14, 2.985000000000024301, 12.00000000000000000 ) ) ;
#219 = CLOSED_SHELL ( 'NONE', ( #172, #120, #68, #140, #185 ) ) ;
#220 = CONICAL_SURFACE ( 'NONE', #116, 2.585000000000023945, 0.7853981633974504994 ) ;
#221 = CARTESIAN_POINT ( 'NONE',  ( 2.779219145719134403E-13, 1.999999999999991340, 79.60000000000000853 ) ) ;
#222 = CARTESIAN_POINT ( 'NONE',  ( 2.793185071074506684E-13, 1.599999999999991207, 80.00000000000000000 ) ) ;
#223 = APPROVAL_STATUS ( 'not_yet_approved' ) ;
#224 = AXIS2_PLACEMENT_3D ( 'NONE', #196, #6, #194 ) ;
#225 = EDGE_CURVE ( 'NONE', #33, #33, #144, .T. ) ;
#226 = ADVANCED_FACE ( 'NONE', ( #11, #49 ), #220, .T. ) ;
#227 = CONICAL_SURFACE ( 'NONE', #224, 2.985000000000025189, 0.5235987755983000369 ) ;
#228 = EDGE_LOOP ( 'NONE', ( #113 ) ) ;
#229 = DIRECTION ( 'NONE',  ( -3.491481338843133355E-15, 1.224646799147353207E-16, -1.000000000000000000 ) ) ;
#230 = CLOSED_SHELL ( 'NONE', ( #8, #71, #208, #226 ) ) ;
#231 = DATE_AND_TIME ( #104, #210 ) ;
#232 = DESIGN_CONTEXT ( 'detailed design', #158, 'design' ) ;
#233 = DIRECTION ( 'NONE',  ( 3.491481338843133355E-15, -1.224646799147353207E-16, 1.000000000000000000 ) ) ;
#234 = CC_DESIGN_SECURITY_CLASSIFICATION ( #205, ( #45 ) ) ;
#235 = PLANE ( 'NONE',  #48 ) ;
#236 = FACE_OUTER_BOUND ( 'NONE', #133, .T. ) ;
#237 = ADVANCED_BREP_SHAPE_REPRESENTATION ( '321823', ( #209, #200, #110 ), #179 ) ;
#238 = DIRECTION ( 'NONE',  ( 0.0000000000000000000, 1.000000000000000000, 0.0000000000000000000 ) ) ;
#239 = CALENDAR_DATE ( 2021, 2, 12 ) ;
#240 = VERTEX_POINT ( 'NONE', #221 ) ;
#241 = CIRCLE ( 'NONE', #89, 2.985000000000025189 ) ;
#242 = DIRECTION ( 'NONE',  ( 1.000000000000000000, 0.0000000000000000000, 0.0000000000000000000 ) ) ;
#243 = APPROVAL_DATE_TIME ( #169, #55 ) ;
ENDSEC;
END-ISO-10303-21;
