ISO-10303-21;
HEADER;
FILE_DESCRIPTION (( 'STEP AP203' ),
    '1' );
FILE_NAME ('321821.step',
    '2021-12-02T12:58:10',
    ( '' ),
    ( '' ),
    'SwSTEP 2.0',
    'SolidWorks 2019',
    '' );
FILE_SCHEMA (( 'CONFIG_CONTROL_DESIGN' ));
ENDSEC;

DATA;
#1 = DIRECTION ( 'NONE',  ( -3.491481338843133355E-15, 1.224646799147353207E-16, -1.000000000000000000 ) ) ;
#2 = APPROVAL_PERSON_ORGANIZATION ( #181, #141, #225 ) ;
#3 = DIRECTION ( 'NONE',  ( -3.491481338843133355E-15, 1.224646799147353207E-16, -1.000000000000000000 ) ) ;
#4 = DIRECTION ( 'NONE',  ( 0.0000000000000000000, 1.000000000000000000, 0.0000000000000000000 ) ) ;
#5 = CARTESIAN_POINT ( 'NONE',  ( 0.0000000000000000000, 0.0000000000000000000, 0.0000000000000000000 ) ) ;
#6 = CC_DESIGN_PERSON_AND_ORGANIZATION_ASSIGNMENT ( #185, #32, ( #235 ) ) ;
#7 = APPLICATION_CONTEXT ( 'configuration controlled 3d designs of mechanical parts and assemblies' ) ;
#8 = VERTEX_POINT ( 'NONE', #78 ) ;
#9 = CARTESIAN_POINT ( 'NONE',  ( 0.0000000000000000000, 2.575000000000023270, 0.0000000000000000000 ) ) ;
#10 = AXIS2_PLACEMENT_3D ( 'NONE', #23, #178, #44 ) ;
#11 = CALENDAR_DATE ( 2021, 2, 12 ) ;
#12 = ORIENTED_EDGE ( 'NONE', *, *, #120, .F. ) ;
#13 = ORIENTED_EDGE ( 'NONE', *, *, #170, .F. ) ;
#14 = EDGE_LOOP ( 'NONE', ( #142 ) ) ;
#15 = COORDINATED_UNIVERSAL_TIME_OFFSET ( 1, 0, .AHEAD. ) ;
#16 = DIRECTION ( 'NONE',  ( 4.275831445896958607E-31, 1.000000000000000000, 1.224646799147353207E-16 ) ) ;
#17 = FACE_OUTER_BOUND ( 'NONE', #221, .T. ) ;
#18 = AXIS2_PLACEMENT_3D ( 'NONE', #91, #3, #20 ) ;
#19 = CARTESIAN_POINT ( 'NONE',  ( 4.189777606611760026E-14, 2.230892676709530024E-32, 12.00000000000000000 ) ) ;
#20 = DIRECTION ( 'NONE',  ( 4.275831445896958607E-31, 1.000000000000000000, 1.224646799147353207E-16 ) ) ;
#21 = DIRECTION ( 'NONE',  ( 3.491481338843133355E-15, -1.224646799147353207E-16, 1.000000000000000000 ) ) ;
#22 = CC_DESIGN_APPROVAL ( #141, ( #235 ) ) ;
#23 = CARTESIAN_POINT ( 'NONE',  ( 2.793185071074506684E-13, 1.199807826129472128E-32, 80.00000000000000000 ) ) ;
#24 = CARTESIAN_POINT ( 'NONE',  ( 4.189777606611760026E-14, 2.975000000000023626, 12.00000000000000000 ) ) ;
#25 = AXIS2_PLACEMENT_3D ( 'NONE', #19, #157, #35 ) ;
#26 = AXIS2_PLACEMENT_3D ( 'NONE', #175, #232, #16 ) ;
#27 = ADVANCED_FACE ( 'NONE', ( #239, #66 ), #37, .T. ) ;
#28 = ORIENTED_EDGE ( 'NONE', *, *, #212, .F. ) ;
#29 = MANIFOLD_SOLID_BREP ( 'Corps-Déplacer/Copier1[2]', #196 ) ;
#30 = SHAPE_DEFINITION_REPRESENTATION ( #154, #100 ) ;
#31 = EDGE_LOOP ( 'NONE', ( #169 ) ) ;
#32 = PERSON_AND_ORGANIZATION_ROLE ( 'creator' ) ;
#33 = APPROVAL_DATE_TIME ( #126, #141 ) ;
#34 = ADVANCED_FACE ( 'NONE', ( #73 ), #210, .T. ) ;
#35 = DIRECTION ( 'NONE',  ( -4.275831445896958607E-31, -1.000000000000000000, -1.224646799147353207E-16 ) ) ;
#36 = CARTESIAN_POINT ( 'NONE',  ( -1.101026597318476970E-30, 3.861881440354318646E-32, -3.153465507804463394E-16 ) ) ;
#37 = CONICAL_SURFACE ( 'NONE', #240, 1.600000000000000977, 0.7853981633974512766 ) ;
#38 = FACE_OUTER_BOUND ( 'NONE', #101, .T. ) ;
#39 = ADVANCED_FACE ( 'NONE', ( #115, #110 ), #130, .T. ) ;
#40 = CYLINDRICAL_SURFACE ( 'NONE', #140, 1.999999999999996669 ) ;
#41 = CARTESIAN_POINT ( 'NONE',  ( 2.779219145719134403E-13, 1.999999999999991340, 79.60000000000000853 ) ) ;
#42 =( NAMED_UNIT ( * ) PLANE_ANGLE_UNIT ( ) SI_UNIT ( $, .RADIAN. ) );
#43 = DESIGN_CONTEXT ( 'detailed design', #136, 'design' ) ;
#44 = DIRECTION ( 'NONE',  ( 4.275831445896958607E-31, 1.000000000000000000, 1.224646799147353207E-16 ) ) ;
#45 =( GEOMETRIC_REPRESENTATION_CONTEXT ( 3 ) GLOBAL_UNCERTAINTY_ASSIGNED_CONTEXT ( ( #155 ) ) GLOBAL_UNIT_ASSIGNED_CONTEXT ( ( #60, #42, #162 ) ) REPRESENTATION_CONTEXT ( 'NONE', 'WORKASPACE' ) );
#46 = EDGE_CURVE ( 'NONE', #79, #79, #218, .T. ) ;
#47 = ORIENTED_EDGE ( 'NONE', *, *, #201, .T. ) ;
#48 = EDGE_LOOP ( 'NONE', ( #47 ) ) ;
#49 = DATE_AND_TIME ( #222, #202 ) ;
#50 = CC_DESIGN_APPROVAL ( #55, ( #174 ) ) ;
#51 = APPROVAL_DATE_TIME ( #243, #55 ) ;
#52 = DIRECTION ( 'NONE',  ( -4.275831445896958607E-31, -1.000000000000000000, -1.224646799147353207E-16 ) ) ;
#53 = DIRECTION ( 'NONE',  ( -3.491481338843133355E-15, 1.224646799147353207E-16, -1.000000000000000000 ) ) ;
#54 = DIRECTION ( 'NONE',  ( -3.491481338843133355E-15, 1.224646799147353207E-16, -1.000000000000000000 ) ) ;
#55 = APPROVAL ( #105, 'UNSPECIFIED' ) ;
#56 = DIRECTION ( 'NONE',  ( 0.0000000000000000000, 1.000000000000000000, 0.0000000000000000000 ) ) ;
#57 = AXIS2_PLACEMENT_3D ( 'NONE', #70, #133, #211 ) ;
#58 = FACE_OUTER_BOUND ( 'NONE', #31, .T. ) ;
#59 = AXIS2_PLACEMENT_3D ( 'NONE', #134, #177, #4 ) ;
#60 =( LENGTH_UNIT ( ) NAMED_UNIT ( * ) SI_UNIT ( .MILLI., .METRE. ) );
#61 = CC_DESIGN_DATE_AND_TIME_ASSIGNMENT ( #49, #163, ( #84 ) ) ;
#62 = CIRCLE ( 'NONE', #59, 2.975000000000024958 ) ;
#63 = APPROVAL_DATE_TIME ( #147, #161 ) ;
#64 = ORIENTED_EDGE ( 'NONE', *, *, #120, .T. ) ;
#65 = PERSON_AND_ORGANIZATION ( #97, #68 ) ;
#66 = FACE_BOUND ( 'NONE', #184, .T. ) ;
#67 = PERSON_AND_ORGANIZATION_ROLE ( 'classification_officer' ) ;
#68 = ORGANIZATION ( 'UNSPECIFIED', 'UNSPECIFIED', '' ) ;
#69 = COORDINATED_UNIVERSAL_TIME_OFFSET ( 1, 0, .AHEAD. ) ;
#70 = CARTESIAN_POINT ( 'NONE',  ( 2.779219145719134403E-13, -9.748188521212932624E-15, 79.60000000000000853 ) ) ;
#71 = PLANE ( 'NONE',  #18 ) ;
#72 = DIRECTION ( 'NONE',  ( 0.0000000000000000000, 1.000000000000000000, 0.0000000000000000000 ) ) ;
#73 = FACE_OUTER_BOUND ( 'NONE', #164, .T. ) ;
#74 = CARTESIAN_POINT ( 'NONE',  ( 4.189777606611760026E-14, -1.469576158976823947E-15, 12.00000000000000000 ) ) ;
#75 = APPROVAL_PERSON_ORGANIZATION ( #238, #55, #187 ) ;
#76 = VERTEX_POINT ( 'NONE', #41 ) ;
#77 = EDGE_CURVE ( 'NONE', #200, #200, #94, .T. ) ;
#78 = CARTESIAN_POINT ( 'NONE',  ( 1.396592535537252553E-15, 2.975000000000024958, 0.3999999999999997446 ) ) ;
#79 = VERTEX_POINT ( 'NONE', #98 ) ;
#80 = CC_DESIGN_APPROVAL ( #161, ( #84 ) ) ;
#81 = PERSON_AND_ORGANIZATION ( #97, #68 ) ;
#82 = ORIENTED_EDGE ( 'NONE', *, *, #212, .T. ) ;
#83 = CALENDAR_DATE ( 2021, 2, 12 ) ;
#84 = SECURITY_CLASSIFICATION ( '', '', #189 ) ;
#85 = ADVANCED_FACE ( 'NONE', ( #17 ), #71, .T. ) ;
#86 = EDGE_LOOP ( 'NONE', ( #128 ) ) ;
#87 = COORDINATED_UNIVERSAL_TIME_OFFSET ( 1, 0, .AHEAD. ) ;
#88 = DIRECTION ( 'NONE',  ( -3.491481338843133355E-15, 1.224646799147353207E-16, -1.000000000000000000 ) ) ;
#89 = PRODUCT ( '321821', '321821', '', ( #207 ) ) ;
#90 = LOCAL_TIME ( 13, 58, 10.00000000000000000, #129 ) ;
#91 = CARTESIAN_POINT ( 'NONE',  ( -5.505132986592384850E-31, 1.930940720177159323E-32, -1.576732753902231697E-16 ) ) ;
#92 = FACE_OUTER_BOUND ( 'NONE', #14, .T. ) ;
#93 = CARTESIAN_POINT ( 'NONE',  ( 2.793185071074506684E-13, -9.797174393178826052E-15, 80.00000000000000000 ) ) ;
#94 = CIRCLE ( 'NONE', #172, 1.600000000000000977 ) ;
#95 = DIRECTION ( 'NONE',  ( 0.0000000000000000000, 1.000000000000000000, 0.0000000000000000000 ) ) ;
#96 = CIRCLE ( 'NONE', #57, 2.000000000000000888 ) ;
#97 = PERSON ( 'UNSPECIFIED', 'UNSPECIFIED', 'UNSPECIFIED', ('UNSPECIFIED'), ('UNSPECIFIED'), ('UNSPECIFIED') ) ;
#98 = CARTESIAN_POINT ( 'NONE',  ( 4.779401356185882205E-14, 1.999999999999990452, 13.68874953737970657 ) ) ;
#99 = ADVANCED_FACE ( 'NONE', ( #92, #58 ), #190, .T. ) ;
#100 = ADVANCED_BREP_SHAPE_REPRESENTATION ( '321821', ( #199, #29, #146 ), #45 ) ;
#101 = EDGE_LOOP ( 'NONE', ( #12 ) ) ;
#102 = AXIS2_PLACEMENT_3D ( 'NONE', #156, #151, #135 ) ;
#103 = PERSON_AND_ORGANIZATION ( #97, #68 ) ;
#104 = CIRCLE ( 'NONE', #208, 2.975000000000024958 ) ;
#105 = APPROVAL_STATUS ( 'not_yet_approved' ) ;
#106 = CC_DESIGN_PERSON_AND_ORGANIZATION_ASSIGNMENT ( #205, #109, ( #235 ) ) ;
#107 = APPLICATION_PROTOCOL_DEFINITION ( 'international standard', 'config_control_design', 1994, #136 ) ;
#108 = AXIS2_PLACEMENT_3D ( 'NONE', #137, #53, #216 ) ;
#109 = PERSON_AND_ORGANIZATION_ROLE ( 'design_supplier' ) ;
#110 = FACE_BOUND ( 'NONE', #204, .T. ) ;
#111 = ADVANCED_FACE ( 'NONE', ( #195 ), #231, .F. ) ;
#112 = FACE_OUTER_BOUND ( 'NONE', #224, .T. ) ;
#113 = CARTESIAN_POINT ( 'NONE',  ( 4.189777606611760026E-14, -1.469576158976823947E-15, 12.00000000000000000 ) ) ;
#114 = CARTESIAN_POINT ( 'NONE',  ( 2.793185071074506684E-13, -9.797174393178826052E-15, 80.00000000000000000 ) ) ;
#115 = FACE_OUTER_BOUND ( 'NONE', #48, .T. ) ;
#116 = AXIS2_PLACEMENT_3D ( 'NONE', #36, #215, #176 ) ;
#117 = CARTESIAN_POINT ( 'NONE',  ( 4.189777606611760026E-14, 2.975000000000023626, 12.00000000000000000 ) ) ;
#118 = DIRECTION ( 'NONE',  ( 1.000000000000000000, 0.0000000000000000000, 0.0000000000000000000 ) ) ;
#119 = APPLICATION_PROTOCOL_DEFINITION ( 'international standard', 'config_control_design', 1994, #7 ) ;
#120 = EDGE_CURVE ( 'NONE', #197, #197, #62, .T. ) ;
#121 = ORIENTED_EDGE ( 'NONE', *, *, #77, .T. ) ;
#122 = DATE_AND_TIME ( #149, #90 ) ;
#123 = CLOSED_SHELL ( 'NONE', ( #111, #144, #158, #27, #226 ) ) ;
#124 = COORDINATED_UNIVERSAL_TIME_OFFSET ( 1, 0, .AHEAD. ) ;
#125 = AXIS2_PLACEMENT_3D ( 'NONE', #227, #21, #52 ) ;
#126 = DATE_AND_TIME ( #127, #131 ) ;
#127 = CALENDAR_DATE ( 2021, 2, 12 ) ;
#128 = ORIENTED_EDGE ( 'NONE', *, *, #46, .T. ) ;
#129 = COORDINATED_UNIVERSAL_TIME_OFFSET ( 1, 0, .AHEAD. ) ;
#130 = CONICAL_SURFACE ( 'NONE', #116, 2.575000000000023270, 0.7853981633974504994 ) ;
#131 = LOCAL_TIME ( 13, 58, 10.00000000000000000, #87 ) ;
#132 = FACE_OUTER_BOUND ( 'NONE', #165, .T. ) ;
#133 = DIRECTION ( 'NONE',  ( -3.491481338843133355E-15, 1.224646799147353207E-16, -1.000000000000000000 ) ) ;
#134 = CARTESIAN_POINT ( 'NONE',  ( 4.189777606611760026E-14, -1.469576158976823947E-15, 12.00000000000000000 ) ) ;
#135 = DIRECTION ( 'NONE',  ( 0.0000000000000000000, 1.000000000000000000, 0.0000000000000000000 ) ) ;
#136 = APPLICATION_CONTEXT ( 'configuration controlled 3d designs of mechanical parts and assemblies' ) ;
#137 = CARTESIAN_POINT ( 'NONE',  ( -1.101026597318476970E-30, 3.861881440354318646E-32, -3.153465507804463394E-16 ) ) ;
#138 = CARTESIAN_POINT ( 'NONE',  ( 0.0000000000000000000, 0.0000000000000000000, 0.0000000000000000000 ) ) ;
#139 = CONICAL_SURFACE ( 'NONE', #214, 2.975000000000024958, 0.5235987755983002589 ) ;
#140 = AXIS2_PLACEMENT_3D ( 'NONE', #5, #88, #193 ) ;
#141 = APPROVAL ( #209, 'UNSPECIFIED' ) ;
#142 = ORIENTED_EDGE ( 'NONE', *, *, #170, .T. ) ;
#143 = PERSON_AND_ORGANIZATION_ROLE ( 'creator' ) ;
#144 = ADVANCED_FACE ( 'NONE', ( #213, #38 ), #139, .T. ) ;
#145 = ORIENTED_EDGE ( 'NONE', *, *, #46, .F. ) ;
#146 = AXIS2_PLACEMENT_3D ( 'NONE', #138, #219, #118 ) ;
#147 = DATE_AND_TIME ( #83, #192 ) ;
#148 = EDGE_LOOP ( 'NONE', ( #145 ) ) ;
#149 = CALENDAR_DATE ( 2021, 2, 12 ) ;
#150 = PERSON_AND_ORGANIZATION_ROLE ( 'design_owner' ) ;
#151 = DIRECTION ( 'NONE',  ( -3.491481338843133355E-15, 1.224646799147353207E-16, -1.000000000000000000 ) ) ;
#152 = AXIS2_PLACEMENT_3D ( 'NONE', #159, #1, #233 ) ;
#153 = DIRECTION ( 'NONE',  ( -3.491481338843133355E-15, 1.224646799147353207E-16, -1.000000000000000000 ) ) ;
#154 = PRODUCT_DEFINITION_SHAPE ( 'NONE', 'NONE',  #174 ) ;
#155 = UNCERTAINTY_MEASURE_WITH_UNIT (LENGTH_MEASURE( 1.000000000000000082E-05 ), #60, 'distance_accuracy_value', 'NONE');
#156 = CARTESIAN_POINT ( 'NONE',  ( 4.779401356185882205E-14, -1.676388330528187061E-15, 13.68874953737970657 ) ) ;
#157 = DIRECTION ( 'NONE',  ( 3.491481338843133355E-15, -1.224646799147353207E-16, 1.000000000000000000 ) ) ;
#158 = ADVANCED_FACE ( 'NONE', ( #173, #132 ), #40, .T. ) ;
#159 = CARTESIAN_POINT ( 'NONE',  ( 1.396592535537251173E-15, -4.898587196589405063E-17, 0.3999999999999993561 ) ) ;
#160 = VERTEX_POINT ( 'NONE', #24 ) ;
#161 = APPROVAL ( #167, 'UNSPECIFIED' ) ;
#162 =( NAMED_UNIT ( * ) SI_UNIT ( $, .STERADIAN. ) SOLID_ANGLE_UNIT ( ) );
#163 = DATE_TIME_ROLE ( 'classification_date' ) ;
#164 = EDGE_LOOP ( 'NONE', ( #13 ) ) ;
#165 = EDGE_LOOP ( 'NONE', ( #237 ) ) ;
#166 = CIRCLE ( 'NONE', #108, 2.575000000000023270 ) ;
#167 = APPROVAL_STATUS ( 'not_yet_approved' ) ;
#168 = ORIENTED_EDGE ( 'NONE', *, *, #217, .F. ) ;
#169 = ORIENTED_EDGE ( 'NONE', *, *, #201, .F. ) ;
#170 = EDGE_CURVE ( 'NONE', #160, #160, #104, .T. ) ;
#171 = DIRECTION ( 'NONE',  ( -3.491481338843133355E-15, 1.224646799147353207E-16, -1.000000000000000000 ) ) ;
#172 = AXIS2_PLACEMENT_3D ( 'NONE', #114, #54, #230 ) ;
#173 = FACE_OUTER_BOUND ( 'NONE', #148, .T. ) ;
#174 = PRODUCT_DEFINITION ( 'UNKNOWN', '', #235, #43 ) ;
#175 = CARTESIAN_POINT ( 'NONE',  ( 0.0000000000000000000, 0.0000000000000000000, 0.0000000000000000000 ) ) ;
#176 = DIRECTION ( 'NONE',  ( -4.275831445896959482E-31, -1.000000000000000000, -1.224646799147353454E-16 ) ) ;
#177 = DIRECTION ( 'NONE',  ( -3.491481338843133355E-15, 1.224646799147353207E-16, -1.000000000000000000 ) ) ;
#178 = DIRECTION ( 'NONE',  ( -3.491481338843133355E-15, 1.224646799147353207E-16, -1.000000000000000000 ) ) ;
#179 = VERTEX_POINT ( 'NONE', #9 ) ;
#180 = LOCAL_TIME ( 13, 58, 10.00000000000000000, #69 ) ;
#181 = PERSON_AND_ORGANIZATION ( #97, #68 ) ;
#182 = PRODUCT_RELATED_PRODUCT_CATEGORY ( 'detail', '', ( #89 ) ) ;
#183 = PERSON_AND_ORGANIZATION ( #97, #68 ) ;
#184 = EDGE_LOOP ( 'NONE', ( #121 ) ) ;
#185 = PERSON_AND_ORGANIZATION ( #97, #68 ) ;
#186 = APPROVAL_PERSON_ORGANIZATION ( #183, #161, #236 ) ;
#187 = APPROVAL_ROLE ( '' ) ;
#188 = ORIENTED_EDGE ( 'NONE', *, *, #77, .F. ) ;
#189 = SECURITY_CLASSIFICATION_LEVEL ( 'unclassified' ) ;
#190 = CYLINDRICAL_SURFACE ( 'NONE', #26, 2.975000000000024958 ) ;
#191 = PLANE ( 'NONE',  #10 ) ;
#192 = LOCAL_TIME ( 13, 58, 10.00000000000000000, #124 ) ;
#193 = DIRECTION ( 'NONE',  ( 4.275831445896958607E-31, 1.000000000000000000, 1.224646799147353207E-16 ) ) ;
#194 = DIRECTION ( 'NONE',  ( -3.491481338843133355E-15, 1.224646799147353207E-16, -1.000000000000000000 ) ) ;
#195 = FACE_OUTER_BOUND ( 'NONE', #206, .T. ) ;
#196 = CLOSED_SHELL ( 'NONE', ( #99, #34, #85, #39 ) ) ;
#197 = VERTEX_POINT ( 'NONE', #117 ) ;
#198 = CC_DESIGN_PERSON_AND_ORGANIZATION_ASSIGNMENT ( #103, #67, ( #84 ) ) ;
#199 = MANIFOLD_SOLID_BREP ( 'Corps-Déplacer/Copier1[1]', #123 ) ;
#200 = VERTEX_POINT ( 'NONE', #220 ) ;
#201 = EDGE_CURVE ( 'NONE', #8, #8, #228, .T. ) ;
#202 = LOCAL_TIME ( 13, 58, 10.00000000000000000, #15 ) ;
#203 = EDGE_LOOP ( 'NONE', ( #168 ) ) ;
#204 = EDGE_LOOP ( 'NONE', ( #28 ) ) ;
#205 = PERSON_AND_ORGANIZATION ( #97, #68 ) ;
#206 = EDGE_LOOP ( 'NONE', ( #64 ) ) ;
#207 = MECHANICAL_CONTEXT ( 'NONE', #7, 'mechanical' ) ;
#208 = AXIS2_PLACEMENT_3D ( 'NONE', #74, #171, #56 ) ;
#209 = APPROVAL_STATUS ( 'not_yet_approved' ) ;
#210 = PLANE ( 'NONE',  #25 ) ;
#211 = DIRECTION ( 'NONE',  ( 0.0000000000000000000, 1.000000000000000000, 0.0000000000000000000 ) ) ;
#212 = EDGE_CURVE ( 'NONE', #179, #179, #166, .T. ) ;
#213 = FACE_BOUND ( 'NONE', #86, .T. ) ;
#214 = AXIS2_PLACEMENT_3D ( 'NONE', #113, #153, #95 ) ;
#215 = DIRECTION ( 'NONE',  ( 3.491481338843133355E-15, -1.224646799147353207E-16, 1.000000000000000000 ) ) ;
#216 = DIRECTION ( 'NONE',  ( 4.275831445896959482E-31, 1.000000000000000000, 1.224646799147353454E-16 ) ) ;
#217 = EDGE_CURVE ( 'NONE', #76, #76, #96, .T. ) ;
#218 = CIRCLE ( 'NONE', #102, 1.999999999999992228 ) ;
#219 = DIRECTION ( 'NONE',  ( 0.0000000000000000000, 0.0000000000000000000, 1.000000000000000000 ) ) ;
#220 = CARTESIAN_POINT ( 'NONE',  ( 2.793185071074506684E-13, 1.599999999999991207, 80.00000000000000000 ) ) ;
#221 = EDGE_LOOP ( 'NONE', ( #82 ) ) ;
#222 = CALENDAR_DATE ( 2021, 2, 12 ) ;
#223 = CC_DESIGN_SECURITY_CLASSIFICATION ( #84, ( #235 ) ) ;
#224 = EDGE_LOOP ( 'NONE', ( #188 ) ) ;
#225 = APPROVAL_ROLE ( '' ) ;
#226 = ADVANCED_FACE ( 'NONE', ( #112 ), #191, .F. ) ;
#227 = CARTESIAN_POINT ( 'NONE',  ( 4.189777606611760026E-14, 2.230892676709530024E-32, 12.00000000000000000 ) ) ;
#228 = CIRCLE ( 'NONE', #152, 2.975000000000024958 ) ;
#229 = CC_DESIGN_PERSON_AND_ORGANIZATION_ASSIGNMENT ( #65, #150, ( #89 ) ) ;
#230 = DIRECTION ( 'NONE',  ( 0.0000000000000000000, 1.000000000000000000, 0.0000000000000000000 ) ) ;
#231 = PLANE ( 'NONE',  #125 ) ;
#232 = DIRECTION ( 'NONE',  ( -3.491481338843133355E-15, 1.224646799147353207E-16, -1.000000000000000000 ) ) ;
#233 = DIRECTION ( 'NONE',  ( 4.531599869146398869E-31, 1.000000000000000000, 1.275531967629994399E-16 ) ) ;
#234 = CC_DESIGN_DATE_AND_TIME_ASSIGNMENT ( #122, #242, ( #174 ) ) ;
#235 = PRODUCT_DEFINITION_FORMATION_WITH_SPECIFIED_SOURCE ( 'ANY', '', #89, .NOT_KNOWN. ) ;
#236 = APPROVAL_ROLE ( '' ) ;
#237 = ORIENTED_EDGE ( 'NONE', *, *, #217, .T. ) ;
#238 = PERSON_AND_ORGANIZATION ( #97, #68 ) ;
#239 = FACE_OUTER_BOUND ( 'NONE', #203, .T. ) ;
#240 = AXIS2_PLACEMENT_3D ( 'NONE', #93, #194, #72 ) ;
#241 = CC_DESIGN_PERSON_AND_ORGANIZATION_ASSIGNMENT ( #81, #143, ( #174 ) ) ;
#242 = DATE_TIME_ROLE ( 'creation_date' ) ;
#243 = DATE_AND_TIME ( #11, #180 ) ;
ENDSEC;
END-ISO-10303-21;
