ISO-10303-21;
HEADER;
FILE_DESCRIPTION (( 'STEP AP203' ),
    '1' );
FILE_NAME ('321816.step',
    '2021-12-02T12:58:06',
    ( '' ),
    ( '' ),
    'SwSTEP 2.0',
    'SolidWorks 2019',
    '' );
FILE_SCHEMA (( 'CONFIG_CONTROL_DESIGN' ));
ENDSEC;

DATA;
#1 = ORIENTED_EDGE ( 'NONE', *, *, #226, .F. ) ;
#2 = APPROVAL_PERSON_ORGANIZATION ( #102, #20, #152 ) ;
#3 = ORIENTED_EDGE ( 'NONE', *, *, #81, .F. ) ;
#4 = ORIENTED_EDGE ( 'NONE', *, *, #81, .T. ) ;
#5 = CIRCLE ( 'NONE', #190, 2.550000000000023803 ) ;
#6 = DIRECTION ( 'NONE',  ( 0.0000000000000000000, 1.000000000000000000, 0.0000000000000000000 ) ) ;
#7 = DIRECTION ( 'NONE',  ( 4.275831445896958607E-31, 1.000000000000000000, 1.224646799147353207E-16 ) ) ;
#8 = DIRECTION ( 'NONE',  ( 4.570003257867977897E-31, 1.000000000000000000, 1.286341560576011125E-16 ) ) ;
#9 = CC_DESIGN_PERSON_AND_ORGANIZATION_ASSIGNMENT ( #78, #148, ( #92 ) ) ;
#10 = CARTESIAN_POINT ( 'NONE',  ( 4.189777606611760026E-14, -1.469576158976823947E-15, 12.00000000000000000 ) ) ;
#11 = ADVANCED_FACE ( 'NONE', ( #150, #115 ), #189, .T. ) ;
#12 = DIRECTION ( 'NONE',  ( 4.275831445896958607E-31, 1.000000000000000000, 1.224646799147353207E-16 ) ) ;
#13 = CALENDAR_DATE ( 2021, 2, 12 ) ;
#14 = CONICAL_SURFACE ( 'NONE', #29, 2.550000000000023803, 0.7853981633974510546 ) ;
#15 = PERSON_AND_ORGANIZATION_ROLE ( 'creator' ) ;
#16 = VERTEX_POINT ( 'NONE', #34 ) ;
#17 = CARTESIAN_POINT ( 'NONE',  ( 4.189777606611760026E-14, 2.950000000000023714, 12.00000000000000000 ) ) ;
#18 = PERSON_AND_ORGANIZATION_ROLE ( 'design_owner' ) ;
#19 = ORIENTED_EDGE ( 'NONE', *, *, #144, .T. ) ;
#20 = APPROVAL ( #207, 'UNSPECIFIED' ) ;
#21 = APPROVAL_DATE_TIME ( #24, #20 ) ;
#22 = ORIENTED_EDGE ( 'NONE', *, *, #199, .F. ) ;
#23 = EDGE_LOOP ( 'NONE', ( #224 ) ) ;
#24 = DATE_AND_TIME ( #192, #201 ) ;
#25 = FACE_OUTER_BOUND ( 'NONE', #61, .T. ) ;
#26 = DIRECTION ( 'NONE',  ( 0.0000000000000000000, 1.000000000000000000, 0.0000000000000000000 ) ) ;
#27 = DIRECTION ( 'NONE',  ( -3.491481338843133355E-15, 1.224646799147353207E-16, -1.000000000000000000 ) ) ;
#28 = FACE_OUTER_BOUND ( 'NONE', #82, .T. ) ;
#29 = AXIS2_PLACEMENT_3D ( 'NONE', #233, #67, #179 ) ;
#30 = CARTESIAN_POINT ( 'NONE',  ( -5.451685093518673064E-31, 1.912193722893886514E-32, -1.561424668912889754E-16 ) ) ;
#31 = PRODUCT_DEFINITION ( 'UNKNOWN', '', #131, #51 ) ;
#32 = COORDINATED_UNIVERSAL_TIME_OFFSET ( 1, 0, .AHEAD. ) ;
#33 = PERSON ( 'UNSPECIFIED', 'UNSPECIFIED', 'UNSPECIFIED', ('UNSPECIFIED'), ('UNSPECIFIED'), ('UNSPECIFIED') ) ;
#34 = CARTESIAN_POINT ( 'NONE',  ( 1.396592535537252553E-15, 2.950000000000025491, 0.3999999999999997446 ) ) ;
#35 = APPLICATION_PROTOCOL_DEFINITION ( 'international standard', 'config_control_design', 1994, #239 ) ;
#36 = CARTESIAN_POINT ( 'NONE',  ( 2.793185071074506684E-13, 1.599999999999991207, 80.00000000000000000 ) ) ;
#37 = MANIFOLD_SOLID_BREP ( 'Corps-Déplacer/Copier1[2]', #212 ) ;
#38 = CARTESIAN_POINT ( 'NONE',  ( 2.779219145719134403E-13, 1.999999999999991340, 79.60000000000000853 ) ) ;
#39 = EDGE_LOOP ( 'NONE', ( #188 ) ) ;
#40 = ORIENTED_EDGE ( 'NONE', *, *, #180, .F. ) ;
#41 = CALENDAR_DATE ( 2021, 2, 12 ) ;
#42 = LOCAL_TIME ( 13, 58, 6.000000000000000000, #94 ) ;
#43 = CIRCLE ( 'NONE', #76, 1.600000000000000977 ) ;
#44 = DIRECTION ( 'NONE',  ( 4.275831445896958607E-31, 1.000000000000000000, 1.224646799147353207E-16 ) ) ;
#45 = COORDINATED_UNIVERSAL_TIME_OFFSET ( 1, 0, .AHEAD. ) ;
#46 = CARTESIAN_POINT ( 'NONE',  ( 1.396592535537251173E-15, -4.898587196589405063E-17, 0.3999999999999993561 ) ) ;
#47 = FACE_OUTER_BOUND ( 'NONE', #203, .T. ) ;
#48 = CARTESIAN_POINT ( 'NONE',  ( 0.0000000000000000000, 0.0000000000000000000, 0.0000000000000000000 ) ) ;
#49 = CARTESIAN_POINT ( 'NONE',  ( 0.0000000000000000000, 0.0000000000000000000, 0.0000000000000000000 ) ) ;
#50 = ADVANCED_FACE ( 'NONE', ( #140 ), #119, .T. ) ;
#51 = DESIGN_CONTEXT ( 'detailed design', #239, 'design' ) ;
#52 = DATE_AND_TIME ( #162, #143 ) ;
#53 = VERTEX_POINT ( 'NONE', #36 ) ;
#54 = PERSON_AND_ORGANIZATION ( #33, #62 ) ;
#55 = CC_DESIGN_PERSON_AND_ORGANIZATION_ASSIGNMENT ( #96, #243, ( #131 ) ) ;
#56 = COORDINATED_UNIVERSAL_TIME_OFFSET ( 1, 0, .AHEAD. ) ;
#57 = CIRCLE ( 'NONE', #134, 2.950000000000025047 ) ;
#58 = EDGE_LOOP ( 'NONE', ( #22 ) ) ;
#59 = CC_DESIGN_PERSON_AND_ORGANIZATION_ASSIGNMENT ( #54, #222, ( #131 ) ) ;
#60 = ORIENTED_EDGE ( 'NONE', *, *, #144, .F. ) ;
#61 = EDGE_LOOP ( 'NONE', ( #3 ) ) ;
#62 = ORGANIZATION ( 'UNSPECIFIED', 'UNSPECIFIED', '' ) ;
#63 = CIRCLE ( 'NONE', #182, 1.999999999999992228 ) ;
#64 = DIRECTION ( 'NONE',  ( -3.491481338843133355E-15, 1.224646799147353207E-16, -1.000000000000000000 ) ) ;
#65 = FACE_OUTER_BOUND ( 'NONE', #39, .T. ) ;
#66 = CC_DESIGN_APPROVAL ( #84, ( #31 ) ) ;
#67 = DIRECTION ( 'NONE',  ( 3.491481338843133355E-15, -1.224646799147353207E-16, 1.000000000000000000 ) ) ;
#68 = DIRECTION ( 'NONE',  ( -3.491481338843133355E-15, 1.224646799147353207E-16, -1.000000000000000000 ) ) ;
#69 = CYLINDRICAL_SURFACE ( 'NONE', #171, 1.999999999999996669 ) ;
#70 = APPROVAL_STATUS ( 'not_yet_approved' ) ;
#71 = ADVANCED_FACE ( 'NONE', ( #133, #216 ), #225, .T. ) ;
#72 = DATE_AND_TIME ( #13, #85 ) ;
#73 = APPROVAL_ROLE ( '' ) ;
#74 = APPROVAL_PERSON_ORGANIZATION ( #238, #159, #200 ) ;
#75 = ADVANCED_FACE ( 'NONE', ( #25 ), #195, .F. ) ;
#76 = AXIS2_PLACEMENT_3D ( 'NONE', #181, #87, #88 ) ;
#77 = DIRECTION ( 'NONE',  ( 1.000000000000000000, 0.0000000000000000000, 0.0000000000000000000 ) ) ;
#78 = PERSON_AND_ORGANIZATION ( #33, #62 ) ;
#79 = EDGE_LOOP ( 'NONE', ( #1 ) ) ;
#80 = CIRCLE ( 'NONE', #206, 2.950000000000025047 ) ;
#81 = EDGE_CURVE ( 'NONE', #53, #53, #43, .T. ) ;
#82 = EDGE_LOOP ( 'NONE', ( #130 ) ) ;
#83 = EDGE_LOOP ( 'NONE', ( #170 ) ) ;
#84 = APPROVAL ( #125, 'UNSPECIFIED' ) ;
#85 = LOCAL_TIME ( 13, 58, 6.000000000000000000, #32 ) ;
#86 = DIRECTION ( 'NONE',  ( -3.491481338843133355E-15, 1.224646799147353207E-16, -1.000000000000000000 ) ) ;
#87 = DIRECTION ( 'NONE',  ( -3.491481338843133355E-15, 1.224646799147353207E-16, -1.000000000000000000 ) ) ;
#88 = DIRECTION ( 'NONE',  ( 0.0000000000000000000, 1.000000000000000000, 0.0000000000000000000 ) ) ;
#89 = DIRECTION ( 'NONE',  ( 3.491481338843133355E-15, -1.224646799147353207E-16, 1.000000000000000000 ) ) ;
#90 = FACE_OUTER_BOUND ( 'NONE', #83, .T. ) ;
#91 = PERSON_AND_ORGANIZATION ( #33, #62 ) ;
#92 = SECURITY_CLASSIFICATION ( '', '', #169 ) ;
#93 = AXIS2_PLACEMENT_3D ( 'NONE', #49, #64, #44 ) ;
#94 = COORDINATED_UNIVERSAL_TIME_OFFSET ( 1, 0, .AHEAD. ) ;
#95 = VERTEX_POINT ( 'NONE', #167 ) ;
#96 = PERSON_AND_ORGANIZATION ( #33, #62 ) ;
#97 = ORIENTED_EDGE ( 'NONE', *, *, #199, .T. ) ;
#98 = CONICAL_SURFACE ( 'NONE', #172, 1.600000000000000977, 0.7853981633974512766 ) ;
#99 = AXIS2_PLACEMENT_3D ( 'NONE', #30, #27, #12 ) ;
#100 = ORIENTED_EDGE ( 'NONE', *, *, #153, .F. ) ;
#101 = CC_DESIGN_PERSON_AND_ORGANIZATION_ASSIGNMENT ( #91, #15, ( #31 ) ) ;
#102 = PERSON_AND_ORGANIZATION ( #33, #62 ) ;
#103 = CC_DESIGN_DATE_AND_TIME_ASSIGNMENT ( #72, #164, ( #31 ) ) ;
#104 = AXIS2_PLACEMENT_3D ( 'NONE', #141, #168, #77 ) ;
#105 = FACE_OUTER_BOUND ( 'NONE', #187, .T. ) ;
#106 = DIRECTION ( 'NONE',  ( 0.0000000000000000000, 1.000000000000000000, 0.0000000000000000000 ) ) ;
#107 = PRODUCT_DEFINITION_SHAPE ( 'NONE', 'NONE',  #31 ) ;
#108 = CARTESIAN_POINT ( 'NONE',  ( 4.189777606611760026E-14, -1.469576158976823947E-15, 12.00000000000000000 ) ) ;
#109 = ADVANCED_FACE ( 'NONE', ( #90 ), #193, .T. ) ;
#110 = DIRECTION ( 'NONE',  ( 0.0000000000000000000, 1.000000000000000000, 0.0000000000000000000 ) ) ;
#111 = DIRECTION ( 'NONE',  ( -4.275831445896958607E-31, -1.000000000000000000, -1.224646799147353207E-16 ) ) ;
#112 = DIRECTION ( 'NONE',  ( 4.275831445896957731E-31, 1.000000000000000000, 1.224646799147352961E-16 ) ) ;
#113 = VERTEX_POINT ( 'NONE', #38 ) ;
#114 = CC_DESIGN_APPROVAL ( #159, ( #131 ) ) ;
#115 = FACE_OUTER_BOUND ( 'NONE', #151, .T. ) ;
#116 = PRODUCT ( '321816', '321816', '', ( #219 ) ) ;
#117 = COORDINATED_UNIVERSAL_TIME_OFFSET ( 1, 0, .AHEAD. ) ;
#118 = DIRECTION ( 'NONE',  ( 3.491481338843133355E-15, -1.224646799147353207E-16, 1.000000000000000000 ) ) ;
#119 = PLANE ( 'NONE',  #173 ) ;
#120 = EDGE_CURVE ( 'NONE', #183, #183, #63, .T. ) ;
#121 = DIRECTION ( 'NONE',  ( -3.491481338843133355E-15, 1.224646799147353207E-16, -1.000000000000000000 ) ) ;
#122 = DIRECTION ( 'NONE',  ( -3.491481338843133355E-15, 1.224646799147353207E-16, -1.000000000000000000 ) ) ;
#123 = DIRECTION ( 'NONE',  ( -3.491481338843133355E-15, 1.224646799147353207E-16, -1.000000000000000000 ) ) ;
#124 = APPROVAL_DATE_TIME ( #52, #84 ) ;
#125 = APPROVAL_STATUS ( 'not_yet_approved' ) ;
#126 = CARTESIAN_POINT ( 'NONE',  ( 4.189777606611760026E-14, 2.950000000000023714, 12.00000000000000000 ) ) ;
#127 = CARTESIAN_POINT ( 'NONE',  ( 4.764282798504494684E-14, 1.999999999999990452, 13.64544826719048665 ) ) ;
#128 = VERTEX_POINT ( 'NONE', #17 ) ;
#129 = ORIENTED_EDGE ( 'NONE', *, *, #180, .T. ) ;
#130 = ORIENTED_EDGE ( 'NONE', *, *, #120, .F. ) ;
#131 = PRODUCT_DEFINITION_FORMATION_WITH_SPECIFIED_SOURCE ( 'ANY', '', #116, .NOT_KNOWN. ) ;
#132 = ADVANCED_FACE ( 'NONE', ( #105 ), #176, .F. ) ;
#133 = FACE_BOUND ( 'NONE', #23, .T. ) ;
#134 = AXIS2_PLACEMENT_3D ( 'NONE', #161, #228, #6 ) ;
#135 = DIRECTION ( 'NONE',  ( -3.491481338843133355E-15, 1.224646799147353207E-16, -1.000000000000000000 ) ) ;
#136 = CC_DESIGN_PERSON_AND_ORGANIZATION_ASSIGNMENT ( #186, #18, ( #116 ) ) ;
#137 = CC_DESIGN_SECURITY_CLASSIFICATION ( #92, ( #131 ) ) ;
#138 = DIRECTION ( 'NONE',  ( -3.491481338843133355E-15, 1.224646799147353207E-16, -1.000000000000000000 ) ) ;
#139 = CARTESIAN_POINT ( 'NONE',  ( 2.793185071074506684E-13, -9.797174393178826052E-15, 80.00000000000000000 ) ) ;
#140 = FACE_OUTER_BOUND ( 'NONE', #58, .T. ) ;
#141 = CARTESIAN_POINT ( 'NONE',  ( 0.0000000000000000000, 0.0000000000000000000, 0.0000000000000000000 ) ) ;
#142 = APPLICATION_CONTEXT ( 'configuration controlled 3d designs of mechanical parts and assemblies' ) ;
#143 = LOCAL_TIME ( 13, 58, 6.000000000000000000, #56 ) ;
#144 = EDGE_CURVE ( 'NONE', #221, #221, #57, .T. ) ;
#145 = AXIS2_PLACEMENT_3D ( 'NONE', #108, #123, #106 ) ;
#146 = PRODUCT_RELATED_PRODUCT_CATEGORY ( 'detail', '', ( #116 ) ) ;
#147 = DIRECTION ( 'NONE',  ( -3.491481338843133355E-15, 1.224646799147353207E-16, -1.000000000000000000 ) ) ;
#148 = PERSON_AND_ORGANIZATION_ROLE ( 'classification_officer' ) ;
#149 = EDGE_LOOP ( 'NONE', ( #4 ) ) ;
#150 = FACE_OUTER_BOUND ( 'NONE', #175, .T. ) ;
#151 = EDGE_LOOP ( 'NONE', ( #40 ) ) ;
#152 = APPROVAL_ROLE ( '' ) ;
#153 = EDGE_CURVE ( 'NONE', #113, #113, #229, .T. ) ;
#154 = DATE_AND_TIME ( #41, #237 ) ;
#155 = APPROVAL_PERSON_ORGANIZATION ( #241, #84, #73 ) ;
#156 = EDGE_LOOP ( 'NONE', ( #60 ) ) ;
#157 = CARTESIAN_POINT ( 'NONE',  ( 4.189777606611760026E-14, 2.212145679426256940E-32, 12.00000000000000000 ) ) ;
#158 = DIRECTION ( 'NONE',  ( -3.491481338843133355E-15, 1.224646799147353207E-16, -1.000000000000000000 ) ) ;
#159 = APPROVAL ( #70, 'UNSPECIFIED' ) ;
#160 = FACE_BOUND ( 'NONE', #79, .T. ) ;
#161 = CARTESIAN_POINT ( 'NONE',  ( 4.189777606611760026E-14, -1.469576158976823947E-15, 12.00000000000000000 ) ) ;
#162 = CALENDAR_DATE ( 2021, 2, 12 ) ;
#163 = CIRCLE ( 'NONE', #211, 2.950000000000025491 ) ;
#164 = DATE_TIME_ROLE ( 'creation_date' ) ;
#165 = ADVANCED_BREP_SHAPE_REPRESENTATION ( '321816', ( #198, #37, #104 ), #202 ) ;
#166 = CALENDAR_DATE ( 2021, 2, 12 ) ;
#167 = CARTESIAN_POINT ( 'NONE',  ( -1.710569414459005214E-46, 2.550000000000023803, 0.0000000000000000000 ) ) ;
#168 = DIRECTION ( 'NONE',  ( 0.0000000000000000000, 0.0000000000000000000, 1.000000000000000000 ) ) ;
#169 = SECURITY_CLASSIFICATION_LEVEL ( 'unclassified' ) ;
#170 = ORIENTED_EDGE ( 'NONE', *, *, #226, .T. ) ;
#171 = AXIS2_PLACEMENT_3D ( 'NONE', #48, #135, #210 ) ;
#172 = AXIS2_PLACEMENT_3D ( 'NONE', #139, #122, #110 ) ;
#173 = AXIS2_PLACEMENT_3D ( 'NONE', #177, #118, #208 ) ;
#174 = ADVANCED_FACE ( 'NONE', ( #28, #65 ), #69, .T. ) ;
#175 = EDGE_LOOP ( 'NONE', ( #97 ) ) ;
#176 = PLANE ( 'NONE',  #235 ) ;
#177 = CARTESIAN_POINT ( 'NONE',  ( 4.189777606611760026E-14, 2.212145679426256940E-32, 12.00000000000000000 ) ) ;
#178 = CARTESIAN_POINT ( 'NONE',  ( 2.779219145719134403E-13, -9.748188521212932624E-15, 79.60000000000000853 ) ) ;
#179 = DIRECTION ( 'NONE',  ( -4.275831445896958607E-31, -1.000000000000000000, -1.224646799147352961E-16 ) ) ;
#180 = EDGE_CURVE ( 'NONE', #16, #16, #163, .T. ) ;
#181 = CARTESIAN_POINT ( 'NONE',  ( 2.793185071074506684E-13, -9.797174393178826052E-15, 80.00000000000000000 ) ) ;
#182 = AXIS2_PLACEMENT_3D ( 'NONE', #214, #121, #26 ) ;
#183 = VERTEX_POINT ( 'NONE', #127 ) ;
#184 = ADVANCED_FACE ( 'NONE', ( #231, #160 ), #14, .T. ) ;
#185 =( NAMED_UNIT ( * ) SI_UNIT ( $, .STERADIAN. ) SOLID_ANGLE_UNIT ( ) );
#186 = PERSON_AND_ORGANIZATION ( #33, #62 ) ;
#187 = EDGE_LOOP ( 'NONE', ( #19 ) ) ;
#188 = ORIENTED_EDGE ( 'NONE', *, *, #153, .T. ) ;
#189 = CYLINDRICAL_SURFACE ( 'NONE', #93, 2.950000000000025491 ) ;
#190 = AXIS2_PLACEMENT_3D ( 'NONE', #196, #147, #112 ) ;
#191 = EDGE_LOOP ( 'NONE', ( #129 ) ) ;
#192 = CALENDAR_DATE ( 2021, 2, 12 ) ;
#193 = PLANE ( 'NONE',  #99 ) ;
#194 = CLOSED_SHELL ( 'NONE', ( #132, #71, #174, #204, #75 ) ) ;
#195 = PLANE ( 'NONE',  #232 ) ;
#196 = CARTESIAN_POINT ( 'NONE',  ( -1.090337018703734613E-30, 3.824387445787773027E-32, -3.122849337825779509E-16 ) ) ;
#197 = CARTESIAN_POINT ( 'NONE',  ( 2.793185071074506684E-13, 1.199807826129472128E-32, 80.00000000000000000 ) ) ;
#198 = MANIFOLD_SOLID_BREP ( 'Corps-Déplacer/Copier1[1]', #194 ) ;
#199 = EDGE_CURVE ( 'NONE', #128, #128, #80, .T. ) ;
#200 = APPROVAL_ROLE ( '' ) ;
#201 = LOCAL_TIME ( 13, 58, 6.000000000000000000, #117 ) ;
#202 =( GEOMETRIC_REPRESENTATION_CONTEXT ( 3 ) GLOBAL_UNCERTAINTY_ASSIGNED_CONTEXT ( ( #215 ) ) GLOBAL_UNIT_ASSIGNED_CONTEXT ( ( #242, #217, #185 ) ) REPRESENTATION_CONTEXT ( 'NONE', 'WORKASPACE' ) );
#203 = EDGE_LOOP ( 'NONE', ( #100 ) ) ;
#204 = ADVANCED_FACE ( 'NONE', ( #47, #213 ), #98, .T. ) ;
#205 = SHAPE_DEFINITION_REPRESENTATION ( #107, #165 ) ;
#206 = AXIS2_PLACEMENT_3D ( 'NONE', #10, #138, #234 ) ;
#207 = APPROVAL_STATUS ( 'not_yet_approved' ) ;
#208 = DIRECTION ( 'NONE',  ( -4.275831445896958607E-31, -1.000000000000000000, -1.224646799147353207E-16 ) ) ;
#209 = CC_DESIGN_DATE_AND_TIME_ASSIGNMENT ( #154, #227, ( #92 ) ) ;
#210 = DIRECTION ( 'NONE',  ( 4.275831445896958607E-31, 1.000000000000000000, 1.224646799147353207E-16 ) ) ;
#211 = AXIS2_PLACEMENT_3D ( 'NONE', #46, #158, #8 ) ;
#212 = CLOSED_SHELL ( 'NONE', ( #11, #50, #109, #184 ) ) ;
#213 = FACE_BOUND ( 'NONE', #149, .T. ) ;
#214 = CARTESIAN_POINT ( 'NONE',  ( 4.764282798504494684E-14, -1.671085454334562629E-15, 13.64544826719048665 ) ) ;
#215 = UNCERTAINTY_MEASURE_WITH_UNIT (LENGTH_MEASURE( 1.000000000000000082E-05 ), #242, 'distance_accuracy_value', 'NONE');
#216 = FACE_OUTER_BOUND ( 'NONE', #156, .T. ) ;
#217 =( NAMED_UNIT ( * ) PLANE_ANGLE_UNIT ( ) SI_UNIT ( $, .RADIAN. ) );
#218 = AXIS2_PLACEMENT_3D ( 'NONE', #178, #86, #230 ) ;
#219 = MECHANICAL_CONTEXT ( 'NONE', #142, 'mechanical' ) ;
#220 = APPROVAL_DATE_TIME ( #240, #159 ) ;
#221 = VERTEX_POINT ( 'NONE', #126 ) ;
#222 = PERSON_AND_ORGANIZATION_ROLE ( 'creator' ) ;
#223 = CC_DESIGN_APPROVAL ( #20, ( #92 ) ) ;
#224 = ORIENTED_EDGE ( 'NONE', *, *, #120, .T. ) ;
#225 = CONICAL_SURFACE ( 'NONE', #145, 2.950000000000025047, 0.5235987755983000369 ) ;
#226 = EDGE_CURVE ( 'NONE', #95, #95, #5, .T. ) ;
#227 = DATE_TIME_ROLE ( 'classification_date' ) ;
#228 = DIRECTION ( 'NONE',  ( -3.491481338843133355E-15, 1.224646799147353207E-16, -1.000000000000000000 ) ) ;
#229 = CIRCLE ( 'NONE', #218, 2.000000000000000888 ) ;
#230 = DIRECTION ( 'NONE',  ( 0.0000000000000000000, 1.000000000000000000, 0.0000000000000000000 ) ) ;
#231 = FACE_OUTER_BOUND ( 'NONE', #191, .T. ) ;
#232 = AXIS2_PLACEMENT_3D ( 'NONE', #197, #68, #7 ) ;
#233 = CARTESIAN_POINT ( 'NONE',  ( -1.090337018703734613E-30, 3.824387445787773027E-32, -3.122849337825779509E-16 ) ) ;
#234 = DIRECTION ( 'NONE',  ( 0.0000000000000000000, 1.000000000000000000, 0.0000000000000000000 ) ) ;
#235 = AXIS2_PLACEMENT_3D ( 'NONE', #157, #89, #111 ) ;
#236 = APPLICATION_PROTOCOL_DEFINITION ( 'international standard', 'config_control_design', 1994, #142 ) ;
#237 = LOCAL_TIME ( 13, 58, 6.000000000000000000, #45 ) ;
#238 = PERSON_AND_ORGANIZATION ( #33, #62 ) ;
#239 = APPLICATION_CONTEXT ( 'configuration controlled 3d designs of mechanical parts and assemblies' ) ;
#240 = DATE_AND_TIME ( #166, #42 ) ;
#241 = PERSON_AND_ORGANIZATION ( #33, #62 ) ;
#242 =( LENGTH_UNIT ( ) NAMED_UNIT ( * ) SI_UNIT ( .MILLI., .METRE. ) );
#243 = PERSON_AND_ORGANIZATION_ROLE ( 'design_supplier' ) ;
ENDSEC;
END-ISO-10303-21;
