ISO-10303-21;
HEADER;
FILE_DESCRIPTION (( 'STEP AP203' ),
    '1' );
FILE_NAME ('321811.step',
    '2021-12-02T12:58:03',
    ( '' ),
    ( '' ),
    'SwSTEP 2.0',
    'SolidWorks 2019',
    '' );
FILE_SCHEMA (( 'CONFIG_CONTROL_DESIGN' ));
ENDSEC;

DATA;
#1 = EDGE_LOOP ( 'NONE', ( #60 ) ) ;
#2 = PERSON_AND_ORGANIZATION_ROLE ( 'creator' ) ;
#3 = CALENDAR_DATE ( 2021, 2, 12 ) ;
#4 = CC_DESIGN_PERSON_AND_ORGANIZATION_ASSIGNMENT ( #37, #116, ( #221 ) ) ;
#5 = DIRECTION ( 'NONE',  ( -3.491481338843133355E-15, 1.224646799147353207E-16, -1.000000000000000000 ) ) ;
#6 = CARTESIAN_POINT ( 'NONE',  ( 1.396592535537251173E-15, -4.898587196589405063E-17, 0.3999999999999993561 ) ) ;
#7 = DIRECTION ( 'NONE',  ( -4.275831445896958607E-31, -1.000000000000000000, -1.224646799147353207E-16 ) ) ;
#8 = EDGE_CURVE ( 'NONE', #146, #146, #58, .T. ) ;
#9 = FACE_BOUND ( 'NONE', #210, .T. ) ;
#10 = CARTESIAN_POINT ( 'NONE',  ( 0.0000000000000000000, 0.0000000000000000000, 0.0000000000000000000 ) ) ;
#11 = CIRCLE ( 'NONE', #172, 1.999999999999992228 ) ;
#12 = CARTESIAN_POINT ( 'NONE',  ( 4.749164240823107793E-14, -1.665782578140937999E-15, 13.60214699700126317 ) ) ;
#13 = MANIFOLD_SOLID_BREP ( 'Corps-Déplacer/Copier1[2]', #25 ) ;
#14 = PERSON_AND_ORGANIZATION_ROLE ( 'creator' ) ;
#15 = DIRECTION ( 'NONE',  ( 0.0000000000000000000, 0.0000000000000000000, 1.000000000000000000 ) ) ;
#16 = CONICAL_SURFACE ( 'NONE', #211, 2.525000000000023892, 0.7853981633974504994 ) ;
#17 = DIRECTION ( 'NONE',  ( -3.491481338843133355E-15, 1.224646799147353207E-16, -1.000000000000000000 ) ) ;
#18 = ADVANCED_FACE ( 'NONE', ( #213 ), #63, .F. ) ;
#19 = EDGE_LOOP ( 'NONE', ( #225 ) ) ;
#20 = CLOSED_SHELL ( 'NONE', ( #18, #207, #168, #233, #204 ) ) ;
#21 = SECURITY_CLASSIFICATION_LEVEL ( 'unclassified' ) ;
#22 = PLANE ( 'NONE',  #218 ) ;
#23 = APPROVAL ( #131, 'UNSPECIFIED' ) ;
#24 = DIRECTION ( 'NONE',  ( 3.950625526948141930E-31, 1.000000000000000000, 1.297335932888626642E-16 ) ) ;
#25 = CLOSED_SHELL ( 'NONE', ( #159, #194, #89, #54 ) ) ;
#26 = DIRECTION ( 'NONE',  ( -3.491481338843133355E-15, 1.224646799147353207E-16, -1.000000000000000000 ) ) ;
#27 = UNCERTAINTY_MEASURE_WITH_UNIT (LENGTH_MEASURE( 1.000000000000000082E-05 ), #35, 'distance_accuracy_value', 'NONE');
#28 = FACE_BOUND ( 'NONE', #190, .T. ) ;
#29 = EDGE_CURVE ( 'NONE', #205, #205, #157, .T. ) ;
#30 = APPROVAL ( #237, 'UNSPECIFIED' ) ;
#31 = DIRECTION ( 'NONE',  ( -4.275831445896958607E-31, -1.000000000000000000, -1.224646799147353207E-16 ) ) ;
#32 = CIRCLE ( 'NONE', #124, 2.925000000000025135 ) ;
#33 = APPROVAL_ROLE ( '' ) ;
#34 =( NAMED_UNIT ( * ) SI_UNIT ( $, .STERADIAN. ) SOLID_ANGLE_UNIT ( ) );
#35 =( LENGTH_UNIT ( ) NAMED_UNIT ( * ) SI_UNIT ( .MILLI., .METRE. ) );
#36 = AXIS2_PLACEMENT_3D ( 'NONE', #215, #45, #49 ) ;
#37 = PERSON_AND_ORGANIZATION ( #39, #144 ) ;
#38 = ORIENTED_EDGE ( 'NONE', *, *, #8, .F. ) ;
#39 = PERSON ( 'UNSPECIFIED', 'UNSPECIFIED', 'UNSPECIFIED', ('UNSPECIFIED'), ('UNSPECIFIED'), ('UNSPECIFIED') ) ;
#40 = ORIENTED_EDGE ( 'NONE', *, *, #80, .F. ) ;
#41 = AXIS2_PLACEMENT_3D ( 'NONE', #10, #5, #201 ) ;
#42 = EDGE_LOOP ( 'NONE', ( #192 ) ) ;
#43 = EDGE_LOOP ( 'NONE', ( #136 ) ) ;
#44 = CIRCLE ( 'NONE', #107, 2.000000000000000888 ) ;
#45 = DIRECTION ( 'NONE',  ( -3.491481338843133355E-15, 1.224646799147353207E-16, -1.000000000000000000 ) ) ;
#46 = CYLINDRICAL_SURFACE ( 'NONE', #138, 2.925000000000025135 ) ;
#47 = FACE_OUTER_BOUND ( 'NONE', #43, .T. ) ;
#48 = CC_DESIGN_SECURITY_CLASSIFICATION ( #169, ( #221 ) ) ;
#49 = DIRECTION ( 'NONE',  ( 4.275831445896958607E-31, 1.000000000000000000, 1.224646799147353207E-16 ) ) ;
#50 = DIRECTION ( 'NONE',  ( 0.0000000000000000000, 1.000000000000000000, 0.0000000000000000000 ) ) ;
#51 = APPLICATION_PROTOCOL_DEFINITION ( 'international standard', 'config_control_design', 1994, #176 ) ;
#52 = AXIS2_PLACEMENT_3D ( 'NONE', #6, #214, #24 ) ;
#53 = VERTEX_POINT ( 'NONE', #72 ) ;
#54 = ADVANCED_FACE ( 'NONE', ( #232, #9 ), #16, .T. ) ;
#55 = APPROVAL_DATE_TIME ( #132, #30 ) ;
#56 = COORDINATED_UNIVERSAL_TIME_OFFSET ( 1, 0, .AHEAD. ) ;
#57 = CARTESIAN_POINT ( 'NONE',  ( 0.0000000000000000000, 2.525000000000023892, 0.0000000000000000000 ) ) ;
#58 = CIRCLE ( 'NONE', #83, 2.925000000000025135 ) ;
#59 = ORIENTED_EDGE ( 'NONE', *, *, #99, .T. ) ;
#60 = ORIENTED_EDGE ( 'NONE', *, *, #162, .T. ) ;
#61 = AXIS2_PLACEMENT_3D ( 'NONE', #177, #106, #197 ) ;
#62 = ADVANCED_BREP_SHAPE_REPRESENTATION ( '321811', ( #174, #13, #209 ), #64 ) ;
#63 = PLANE ( 'NONE',  #182 ) ;
#64 =( GEOMETRIC_REPRESENTATION_CONTEXT ( 3 ) GLOBAL_UNCERTAINTY_ASSIGNED_CONTEXT ( ( #27 ) ) GLOBAL_UNIT_ASSIGNED_CONTEXT ( ( #35, #110, #34 ) ) REPRESENTATION_CONTEXT ( 'NONE', 'WORKASPACE' ) );
#65 = DIRECTION ( 'NONE',  ( 3.491481338843133355E-15, -1.224646799147353207E-16, 1.000000000000000000 ) ) ;
#66 = DIRECTION ( 'NONE',  ( 3.491481338843133355E-15, -1.224646799147353207E-16, 1.000000000000000000 ) ) ;
#67 = DIRECTION ( 'NONE',  ( 4.275831445896958607E-31, 1.000000000000000000, 1.224646799147353207E-16 ) ) ;
#68 = DIRECTION ( 'NONE',  ( -3.491481338843133355E-15, 1.224646799147353207E-16, -1.000000000000000000 ) ) ;
#69 = DIRECTION ( 'NONE',  ( 0.0000000000000000000, 1.000000000000000000, 0.0000000000000000000 ) ) ;
#70 = PRODUCT_DEFINITION ( 'UNKNOWN', '', #221, #195 ) ;
#71 = APPROVAL_DATE_TIME ( #165, #23 ) ;
#72 = CARTESIAN_POINT ( 'NONE',  ( 4.749164240823107793E-14, 1.999999999999990452, 13.60214699700126317 ) ) ;
#73 = CC_DESIGN_DATE_AND_TIME_ASSIGNMENT ( #234, #90, ( #70 ) ) ;
#74 = CIRCLE ( 'NONE', #198, 2.525000000000023892 ) ;
#75 = DATE_TIME_ROLE ( 'classification_date' ) ;
#76 = EDGE_LOOP ( 'NONE', ( #193 ) ) ;
#77 = CC_DESIGN_PERSON_AND_ORGANIZATION_ASSIGNMENT ( #135, #112, ( #169 ) ) ;
#78 = APPROVAL_DATE_TIME ( #222, #170 ) ;
#79 = CALENDAR_DATE ( 2021, 2, 12 ) ;
#80 = EDGE_CURVE ( 'NONE', #147, #147, #185, .T. ) ;
#81 = DIRECTION ( 'NONE',  ( -3.491481338843133355E-15, 1.224646799147353207E-16, -1.000000000000000000 ) ) ;
#82 = FACE_OUTER_BOUND ( 'NONE', #134, .T. ) ;
#83 = AXIS2_PLACEMENT_3D ( 'NONE', #155, #158, #145 ) ;
#84 = FACE_OUTER_BOUND ( 'NONE', #137, .T. ) ;
#85 = DIRECTION ( 'NONE',  ( 0.0000000000000000000, 1.000000000000000000, 0.0000000000000000000 ) ) ;
#86 = CC_DESIGN_PERSON_AND_ORGANIZATION_ASSIGNMENT ( #94, #2, ( #221 ) ) ;
#87 = CARTESIAN_POINT ( 'NONE',  ( -5.398237200444961279E-31, 1.893446725610613157E-32, -1.546116583923548058E-16 ) ) ;
#88 = CALENDAR_DATE ( 2021, 2, 12 ) ;
#89 = ADVANCED_FACE ( 'NONE', ( #161 ), #22, .T. ) ;
#90 = DATE_TIME_ROLE ( 'creation_date' ) ;
#91 = LOCAL_TIME ( 13, 58, 3.000000000000000000, #189 ) ;
#92 = DIRECTION ( 'NONE',  ( 1.000000000000000000, 0.0000000000000000000, 0.0000000000000000000 ) ) ;
#93 = CARTESIAN_POINT ( 'NONE',  ( 2.779219145719134403E-13, 1.999999999999991340, 79.60000000000000853 ) ) ;
#94 = PERSON_AND_ORGANIZATION ( #39, #144 ) ;
#95 = ORIENTED_EDGE ( 'NONE', *, *, #242, .T. ) ;
#96 = APPROVAL_STATUS ( 'not_yet_approved' ) ;
#97 = EDGE_LOOP ( 'NONE', ( #243 ) ) ;
#98 = CC_DESIGN_APPROVAL ( #170, ( #169 ) ) ;
#99 = EDGE_CURVE ( 'NONE', #108, #108, #44, .T. ) ;
#100 = ORIENTED_EDGE ( 'NONE', *, *, #8, .T. ) ;
#101 = FACE_OUTER_BOUND ( 'NONE', #117, .T. ) ;
#102 = PLANE ( 'NONE',  #151 ) ;
#103 = LOCAL_TIME ( 13, 58, 3.000000000000000000, #148 ) ;
#104 = DIRECTION ( 'NONE',  ( 3.491481338843133355E-15, -1.224646799147353207E-16, 1.000000000000000000 ) ) ;
#105 = PRODUCT_DEFINITION_SHAPE ( 'NONE', 'NONE',  #70 ) ;
#106 = DIRECTION ( 'NONE',  ( -3.491481338843133355E-15, 1.224646799147353207E-16, -1.000000000000000000 ) ) ;
#107 = AXIS2_PLACEMENT_3D ( 'NONE', #230, #141, #199 ) ;
#108 = VERTEX_POINT ( 'NONE', #93 ) ;
#109 = PERSON_AND_ORGANIZATION ( #39, #144 ) ;
#110 =( NAMED_UNIT ( * ) PLANE_ANGLE_UNIT ( ) SI_UNIT ( $, .RADIAN. ) );
#111 = APPROVAL_ROLE ( '' ) ;
#112 = PERSON_AND_ORGANIZATION_ROLE ( 'classification_officer' ) ;
#113 = ORIENTED_EDGE ( 'NONE', *, *, #118, .F. ) ;
#114 = CC_DESIGN_PERSON_AND_ORGANIZATION_ASSIGNMENT ( #149, #150, ( #119 ) ) ;
#115 = EDGE_LOOP ( 'NONE', ( #100 ) ) ;
#116 = PERSON_AND_ORGANIZATION_ROLE ( 'design_supplier' ) ;
#117 = EDGE_LOOP ( 'NONE', ( #59 ) ) ;
#118 = EDGE_CURVE ( 'NONE', #236, #236, #32, .T. ) ;
#119 = PRODUCT ( '321811', '321811', '', ( #129 ) ) ;
#120 = AXIS2_PLACEMENT_3D ( 'NONE', #142, #26, #85 ) ;
#121 = DIRECTION ( 'NONE',  ( -3.491481338843133355E-15, 1.224646799147353207E-16, -1.000000000000000000 ) ) ;
#122 = CARTESIAN_POINT ( 'NONE',  ( 0.0000000000000000000, 0.0000000000000000000, 0.0000000000000000000 ) ) ;
#123 = FACE_OUTER_BOUND ( 'NONE', #115, .T. ) ;
#124 = AXIS2_PLACEMENT_3D ( 'NONE', #216, #81, #50 ) ;
#125 = CARTESIAN_POINT ( 'NONE',  ( 4.189777606611760026E-14, 2.193398682142983583E-32, 12.00000000000000000 ) ) ;
#126 = CARTESIAN_POINT ( 'NONE',  ( -1.079647440088992256E-30, 3.786893451221226313E-32, -3.092233167847096116E-16 ) ) ;
#127 = PRODUCT_RELATED_PRODUCT_CATEGORY ( 'detail', '', ( #119 ) ) ;
#128 = APPLICATION_CONTEXT ( 'configuration controlled 3d designs of mechanical parts and assemblies' ) ;
#129 = MECHANICAL_CONTEXT ( 'NONE', #176, 'mechanical' ) ;
#130 = CC_DESIGN_APPROVAL ( #23, ( #70 ) ) ;
#131 = APPROVAL_STATUS ( 'not_yet_approved' ) ;
#132 = DATE_AND_TIME ( #219, #103 ) ;
#133 = CONICAL_SURFACE ( 'NONE', #61, 2.925000000000025135, 0.5235987755983003700 ) ;
#134 = EDGE_LOOP ( 'NONE', ( #113 ) ) ;
#135 = PERSON_AND_ORGANIZATION ( #39, #144 ) ;
#136 = ORIENTED_EDGE ( 'NONE', *, *, #242, .F. ) ;
#137 = EDGE_LOOP ( 'NONE', ( #40 ) ) ;
#138 = AXIS2_PLACEMENT_3D ( 'NONE', #122, #212, #231 ) ;
#139 = DIRECTION ( 'NONE',  ( 0.0000000000000000000, 1.000000000000000000, 0.0000000000000000000 ) ) ;
#140 = CONICAL_SURFACE ( 'NONE', #120, 1.600000000000000977, 0.7853981633974512766 ) ;
#141 = DIRECTION ( 'NONE',  ( -3.491481338843133355E-15, 1.224646799147353207E-16, -1.000000000000000000 ) ) ;
#142 = CARTESIAN_POINT ( 'NONE',  ( 2.793185071074506684E-13, -9.797174393178826052E-15, 80.00000000000000000 ) ) ;
#143 = FACE_OUTER_BOUND ( 'NONE', #42, .T. ) ;
#144 = ORGANIZATION ( 'UNSPECIFIED', 'UNSPECIFIED', '' ) ;
#145 = DIRECTION ( 'NONE',  ( 0.0000000000000000000, 1.000000000000000000, 0.0000000000000000000 ) ) ;
#146 = VERTEX_POINT ( 'NONE', #220 ) ;
#147 = VERTEX_POINT ( 'NONE', #166 ) ;
#148 = COORDINATED_UNIVERSAL_TIME_OFFSET ( 1, 0, .AHEAD. ) ;
#149 = PERSON_AND_ORGANIZATION ( #39, #144 ) ;
#150 = PERSON_AND_ORGANIZATION_ROLE ( 'design_owner' ) ;
#151 = AXIS2_PLACEMENT_3D ( 'NONE', #125, #66, #7 ) ;
#152 = ORIENTED_EDGE ( 'NONE', *, *, #80, .T. ) ;
#153 = EDGE_LOOP ( 'NONE', ( #38 ) ) ;
#154 = LOCAL_TIME ( 13, 58, 3.000000000000000000, #187 ) ;
#155 = CARTESIAN_POINT ( 'NONE',  ( 4.189777606611760026E-14, -1.469576158976823947E-15, 12.00000000000000000 ) ) ;
#156 = FACE_OUTER_BOUND ( 'NONE', #153, .T. ) ;
#157 = CIRCLE ( 'NONE', #52, 2.925000000000025135 ) ;
#158 = DIRECTION ( 'NONE',  ( -3.491481338843133355E-15, 1.224646799147353207E-16, -1.000000000000000000 ) ) ;
#159 = ADVANCED_FACE ( 'NONE', ( #123, #143 ), #46, .T. ) ;
#160 = FACE_OUTER_BOUND ( 'NONE', #19, .T. ) ;
#161 = FACE_OUTER_BOUND ( 'NONE', #1, .T. ) ;
#162 = EDGE_CURVE ( 'NONE', #186, #186, #74, .T. ) ;
#163 = CARTESIAN_POINT ( 'NONE',  ( 4.189777606611760026E-14, 2.193398682142983583E-32, 12.00000000000000000 ) ) ;
#164 = APPROVAL_PERSON_ORGANIZATION ( #202, #30, #167 ) ;
#165 = DATE_AND_TIME ( #88, #228 ) ;
#166 = CARTESIAN_POINT ( 'NONE',  ( 2.793185071074506684E-13, 1.599999999999991207, 80.00000000000000000 ) ) ;
#167 = APPROVAL_ROLE ( '' ) ;
#168 = ADVANCED_FACE ( 'NONE', ( #47, #101 ), #175, .T. ) ;
#169 = SECURITY_CLASSIFICATION ( '', '', #21 ) ;
#170 = APPROVAL ( #96, 'UNSPECIFIED' ) ;
#171 = DATE_AND_TIME ( #3, #91 ) ;
#172 = AXIS2_PLACEMENT_3D ( 'NONE', #12, #17, #69 ) ;
#173 = EDGE_LOOP ( 'NONE', ( #95 ) ) ;
#174 = MANIFOLD_SOLID_BREP ( 'Corps-Déplacer/Copier1[1]', #20 ) ;
#175 = CYLINDRICAL_SURFACE ( 'NONE', #41, 1.999999999999996669 ) ;
#176 = APPLICATION_CONTEXT ( 'configuration controlled 3d designs of mechanical parts and assemblies' ) ;
#177 = CARTESIAN_POINT ( 'NONE',  ( 4.189777606611760026E-14, -1.469576158976823947E-15, 12.00000000000000000 ) ) ;
#178 = DIRECTION ( 'NONE',  ( -4.275831445896958607E-31, -1.000000000000000000, -1.224646799147353207E-16 ) ) ;
#179 = FACE_BOUND ( 'NONE', #173, .T. ) ;
#180 = CARTESIAN_POINT ( 'NONE',  ( -1.079647440088992256E-30, 3.786893451221226313E-32, -3.092233167847096116E-16 ) ) ;
#181 = CALENDAR_DATE ( 2021, 2, 12 ) ;
#182 = AXIS2_PLACEMENT_3D ( 'NONE', #163, #65, #31 ) ;
#183 = CARTESIAN_POINT ( 'NONE',  ( 1.396592535537252356E-15, 2.925000000000025135, 0.3999999999999997446 ) ) ;
#184 = COORDINATED_UNIVERSAL_TIME_OFFSET ( 1, 0, .AHEAD. ) ;
#185 = CIRCLE ( 'NONE', #241, 1.600000000000000977 ) ;
#186 = VERTEX_POINT ( 'NONE', #57 ) ;
#187 = COORDINATED_UNIVERSAL_TIME_OFFSET ( 1, 0, .AHEAD. ) ;
#188 = LOCAL_TIME ( 13, 58, 3.000000000000000000, #56 ) ;
#189 = COORDINATED_UNIVERSAL_TIME_OFFSET ( 1, 0, .AHEAD. ) ;
#190 = EDGE_LOOP ( 'NONE', ( #152 ) ) ;
#191 = SHAPE_DEFINITION_REPRESENTATION ( #105, #62 ) ;
#192 = ORIENTED_EDGE ( 'NONE', *, *, #29, .F. ) ;
#193 = ORIENTED_EDGE ( 'NONE', *, *, #118, .T. ) ;
#194 = ADVANCED_FACE ( 'NONE', ( #156 ), #102, .T. ) ;
#195 = DESIGN_CONTEXT ( 'detailed design', #128, 'design' ) ;
#196 = DIRECTION ( 'NONE',  ( -3.491481338843133355E-15, 1.224646799147353207E-16, -1.000000000000000000 ) ) ;
#197 = DIRECTION ( 'NONE',  ( 0.0000000000000000000, 1.000000000000000000, 0.0000000000000000000 ) ) ;
#198 = AXIS2_PLACEMENT_3D ( 'NONE', #180, #196, #200 ) ;
#199 = DIRECTION ( 'NONE',  ( 0.0000000000000000000, 1.000000000000000000, 0.0000000000000000000 ) ) ;
#200 = DIRECTION ( 'NONE',  ( 4.275831445896958607E-31, 1.000000000000000000, 1.224646799147353207E-16 ) ) ;
#201 = DIRECTION ( 'NONE',  ( 4.275831445896958607E-31, 1.000000000000000000, 1.224646799147353207E-16 ) ) ;
#202 = PERSON_AND_ORGANIZATION ( #39, #144 ) ;
#203 = APPROVAL_PERSON_ORGANIZATION ( #109, #23, #33 ) ;
#204 = ADVANCED_FACE ( 'NONE', ( #84 ), #227, .F. ) ;
#205 = VERTEX_POINT ( 'NONE', #183 ) ;
#206 = CARTESIAN_POINT ( 'NONE',  ( 4.189777606611760026E-14, 2.925000000000023803, 12.00000000000000000 ) ) ;
#207 = ADVANCED_FACE ( 'NONE', ( #179, #82 ), #133, .T. ) ;
#208 = APPLICATION_PROTOCOL_DEFINITION ( 'international standard', 'config_control_design', 1994, #128 ) ;
#209 = AXIS2_PLACEMENT_3D ( 'NONE', #217, #15, #92 ) ;
#210 = EDGE_LOOP ( 'NONE', ( #223 ) ) ;
#211 = AXIS2_PLACEMENT_3D ( 'NONE', #126, #104, #178 ) ;
#212 = DIRECTION ( 'NONE',  ( -3.491481338843133355E-15, 1.224646799147353207E-16, -1.000000000000000000 ) ) ;
#213 = FACE_OUTER_BOUND ( 'NONE', #76, .T. ) ;
#214 = DIRECTION ( 'NONE',  ( -3.491481338843133355E-15, 1.224646799147353207E-16, -1.000000000000000000 ) ) ;
#215 = CARTESIAN_POINT ( 'NONE',  ( 2.793185071074506684E-13, 1.199807826129472128E-32, 80.00000000000000000 ) ) ;
#216 = CARTESIAN_POINT ( 'NONE',  ( 4.189777606611760026E-14, -1.469576158976823947E-15, 12.00000000000000000 ) ) ;
#217 = CARTESIAN_POINT ( 'NONE',  ( 0.0000000000000000000, 0.0000000000000000000, 0.0000000000000000000 ) ) ;
#218 = AXIS2_PLACEMENT_3D ( 'NONE', #87, #121, #67 ) ;
#219 = CALENDAR_DATE ( 2021, 2, 12 ) ;
#220 = CARTESIAN_POINT ( 'NONE',  ( 4.189777606611760026E-14, 2.925000000000023803, 12.00000000000000000 ) ) ;
#221 = PRODUCT_DEFINITION_FORMATION_WITH_SPECIFIED_SOURCE ( 'ANY', '', #119, .NOT_KNOWN. ) ;
#222 = DATE_AND_TIME ( #79, #154 ) ;
#223 = ORIENTED_EDGE ( 'NONE', *, *, #162, .F. ) ;
#224 = CC_DESIGN_PERSON_AND_ORGANIZATION_ASSIGNMENT ( #239, #14, ( #70 ) ) ;
#225 = ORIENTED_EDGE ( 'NONE', *, *, #99, .F. ) ;
#226 = APPROVAL_PERSON_ORGANIZATION ( #240, #170, #111 ) ;
#227 = PLANE ( 'NONE',  #36 ) ;
#228 = LOCAL_TIME ( 13, 58, 3.000000000000000000, #184 ) ;
#229 = CARTESIAN_POINT ( 'NONE',  ( 2.793185071074506684E-13, -9.797174393178826052E-15, 80.00000000000000000 ) ) ;
#230 = CARTESIAN_POINT ( 'NONE',  ( 2.779219145719134403E-13, -9.748188521212932624E-15, 79.60000000000000853 ) ) ;
#231 = DIRECTION ( 'NONE',  ( 4.275831445896958607E-31, 1.000000000000000000, 1.224646799147353207E-16 ) ) ;
#232 = FACE_OUTER_BOUND ( 'NONE', #97, .T. ) ;
#233 = ADVANCED_FACE ( 'NONE', ( #160, #28 ), #140, .T. ) ;
#234 = DATE_AND_TIME ( #181, #188 ) ;
#235 = CC_DESIGN_DATE_AND_TIME_ASSIGNMENT ( #171, #75, ( #169 ) ) ;
#236 = VERTEX_POINT ( 'NONE', #206 ) ;
#237 = APPROVAL_STATUS ( 'not_yet_approved' ) ;
#238 = CC_DESIGN_APPROVAL ( #30, ( #221 ) ) ;
#239 = PERSON_AND_ORGANIZATION ( #39, #144 ) ;
#240 = PERSON_AND_ORGANIZATION ( #39, #144 ) ;
#241 = AXIS2_PLACEMENT_3D ( 'NONE', #229, #68, #139 ) ;
#242 = EDGE_CURVE ( 'NONE', #53, #53, #11, .T. ) ;
#243 = ORIENTED_EDGE ( 'NONE', *, *, #29, .T. ) ;
ENDSEC;
END-ISO-10303-21;
