ISO-10303-21;
HEADER;
FILE_DESCRIPTION (( 'STEP AP203' ),
    '1' );
FILE_NAME ('321806.step',
    '2021-12-02T12:57:59',
    ( '' ),
    ( '' ),
    'SwSTEP 2.0',
    'SolidWorks 2019',
    '' );
FILE_SCHEMA (( 'CONFIG_CONTROL_DESIGN' ));
ENDSEC;

DATA;
#1 = CARTESIAN_POINT ( 'NONE',  ( 4.189777606611760026E-14, 2.900000000000028777, 12.00000000000000000 ) ) ;
#2 = AXIS2_PLACEMENT_3D ( 'NONE', #200, #10, #233 ) ;
#3 = PERSON_AND_ORGANIZATION_ROLE ( 'design_supplier' ) ;
#4 = DIRECTION ( 'NONE',  ( 0.0000000000000000000, 1.000000000000000000, 0.0000000000000000000 ) ) ;
#5 = DATE_AND_TIME ( #190, #105 ) ;
#6 = PLANE ( 'NONE',  #21 ) ;
#7 = EDGE_LOOP ( 'NONE', ( #236 ) ) ;
#8 = CARTESIAN_POINT ( 'NONE',  ( -1.068957861474252001E-30, 3.749399456654687263E-32, -3.061616997868418147E-16 ) ) ;
#9 = PRODUCT_DEFINITION ( 'UNKNOWN', '', #126, #214 ) ;
#10 = DIRECTION ( 'NONE',  ( -3.491481338843133355E-15, 1.224646799147353207E-16, -1.000000000000000000 ) ) ;
#11 = EDGE_LOOP ( 'NONE', ( #100 ) ) ;
#12 = DIRECTION ( 'NONE',  ( 4.275831445896958607E-31, 1.000000000000000000, 1.224646799147353207E-16 ) ) ;
#13 = DIRECTION ( 'NONE',  ( 0.0000000000000000000, 0.0000000000000000000, 1.000000000000000000 ) ) ;
#14 = ADVANCED_FACE ( 'NONE', ( #139, #120 ), #201, .T. ) ;
#15 = FACE_BOUND ( 'NONE', #116, .T. ) ;
#16 = CARTESIAN_POINT ( 'NONE',  ( 4.189777606611760026E-14, -1.469576158976823947E-15, 12.00000000000000000 ) ) ;
#17 = ADVANCED_BREP_SHAPE_REPRESENTATION ( '321806', ( #152, #156, #144 ), #145 ) ;
#18 = DATE_AND_TIME ( #71, #42 ) ;
#19 = DIRECTION ( 'NONE',  ( -3.491481338843133355E-15, 1.224646799147353207E-16, -1.000000000000000000 ) ) ;
#20 = APPROVAL_ROLE ( '' ) ;
#21 = AXIS2_PLACEMENT_3D ( 'NONE', #160, #64, #212 ) ;
#22 = EDGE_CURVE ( 'NONE', #54, #54, #108, .T. ) ;
#23 = PERSON_AND_ORGANIZATION ( #132, #90 ) ;
#24 = DIRECTION ( 'NONE',  ( 3.491481338843133355E-15, -1.224646799147353207E-16, 1.000000000000000000 ) ) ;
#25 = APPROVAL_PERSON_ORGANIZATION ( #127, #34, #20 ) ;
#26 = APPROVAL_DATE_TIME ( #5, #36 ) ;
#27 = DIRECTION ( 'NONE',  ( 3.491481338843133355E-15, -1.224646799147353207E-16, 1.000000000000000000 ) ) ;
#28 = EDGE_LOOP ( 'NONE', ( #97 ) ) ;
#29 = AXIS2_PLACEMENT_3D ( 'NONE', #46, #196, #194 ) ;
#30 = EDGE_LOOP ( 'NONE', ( #48 ) ) ;
#31 = FACE_BOUND ( 'NONE', #220, .T. ) ;
#32 = CARTESIAN_POINT ( 'NONE',  ( 0.0000000000000000000, 0.0000000000000000000, 0.0000000000000000000 ) ) ;
#33 = APPLICATION_PROTOCOL_DEFINITION ( 'international standard', 'config_control_design', 1994, #49 ) ;
#34 = APPROVAL ( #188, 'UNSPECIFIED' ) ;
#35 = VERTEX_POINT ( 'NONE', #140 ) ;
#36 = APPROVAL ( #134, 'UNSPECIFIED' ) ;
#37 = VERTEX_POINT ( 'NONE', #204 ) ;
#38 = AXIS2_PLACEMENT_3D ( 'NONE', #85, #228, #133 ) ;
#39 = CALENDAR_DATE ( 2021, 2, 12 ) ;
#40 = ADVANCED_FACE ( 'NONE', ( #15, #89 ), #55, .T. ) ;
#41 = APPROVAL_DATE_TIME ( #18, #240 ) ;
#42 = LOCAL_TIME ( 13, 57, 59.00000000000000000, #121 ) ;
#43 = CC_DESIGN_APPROVAL ( #36, ( #167 ) ) ;
#44 = PERSON_AND_ORGANIZATION ( #132, #90 ) ;
#45 = EDGE_CURVE ( 'NONE', #37, #37, #58, .T. ) ;
#46 = CARTESIAN_POINT ( 'NONE',  ( 2.793185071074506684E-13, 1.199807826129472128E-32, 80.00000000000000000 ) ) ;
#47 = AXIS2_PLACEMENT_3D ( 'NONE', #53, #183, #122 ) ;
#48 = ORIENTED_EDGE ( 'NONE', *, *, #45, .T. ) ;
#49 = APPLICATION_CONTEXT ( 'configuration controlled 3d designs of mechanical parts and assemblies' ) ;
#50 = CARTESIAN_POINT ( 'NONE',  ( 1.396592535537251173E-15, -4.898587196589405063E-17, 0.3999999999999993561 ) ) ;
#51 = CC_DESIGN_PERSON_AND_ORGANIZATION_ASSIGNMENT ( #229, #3, ( #126 ) ) ;
#52 = APPLICATION_PROTOCOL_DEFINITION ( 'international standard', 'config_control_design', 1994, #107 ) ;
#53 = CARTESIAN_POINT ( 'NONE',  ( 2.779219145719134403E-13, -9.748188521212932624E-15, 79.60000000000000853 ) ) ;
#54 = VERTEX_POINT ( 'NONE', #93 ) ;
#55 = CONICAL_SURFACE ( 'NONE', #208, 2.900000000000030109, 0.5235987755983000369 ) ;
#56 = ADVANCED_FACE ( 'NONE', ( #88, #231 ), #199, .T. ) ;
#57 = COORDINATED_UNIVERSAL_TIME_OFFSET ( 1, 0, .AHEAD. ) ;
#58 = CIRCLE ( 'NONE', #62, 2.900000000000030109 ) ;
#59 = DATE_AND_TIME ( #112, #119 ) ;
#60 = PRODUCT ( '321806', '321806', '', ( #125 ) ) ;
#61 = CC_DESIGN_PERSON_AND_ORGANIZATION_ASSIGNMENT ( #168, #226, ( #60 ) ) ;
#62 = AXIS2_PLACEMENT_3D ( 'NONE', #16, #143, #163 ) ;
#63 = FACE_OUTER_BOUND ( 'NONE', #30, .T. ) ;
#64 = DIRECTION ( 'NONE',  ( -3.491481338843133355E-15, 1.224646799147353207E-16, -1.000000000000000000 ) ) ;
#65 = ORIENTED_EDGE ( 'NONE', *, *, #77, .T. ) ;
#66 = CARTESIAN_POINT ( 'NONE',  ( 1.396592535537252356E-15, 2.900000000000030109, 0.3999999999999997446 ) ) ;
#67 = CONICAL_SURFACE ( 'NONE', #242, 2.500000000000028866, 0.7853981633974504994 ) ;
#68 = PERSON_AND_ORGANIZATION_ROLE ( 'creator' ) ;
#69 = LOCAL_TIME ( 13, 57, 59.00000000000000000, #162 ) ;
#70 = DIRECTION ( 'NONE',  ( 0.0000000000000000000, 1.000000000000000000, 0.0000000000000000000 ) ) ;
#71 = CALENDAR_DATE ( 2021, 2, 12 ) ;
#72 = ADVANCED_FACE ( 'NONE', ( #175 ), #210, .T. ) ;
#73 = DATE_AND_TIME ( #39, #238 ) ;
#74 = AXIS2_PLACEMENT_3D ( 'NONE', #50, #117, #213 ) ;
#75 = COORDINATED_UNIVERSAL_TIME_OFFSET ( 1, 0, .AHEAD. ) ;
#76 = DATE_TIME_ROLE ( 'classification_date' ) ;
#77 = EDGE_CURVE ( 'NONE', #202, #202, #184, .T. ) ;
#78 = FACE_OUTER_BOUND ( 'NONE', #102, .T. ) ;
#79 = CARTESIAN_POINT ( 'NONE',  ( 4.189777606611760026E-14, 2.174651684859714332E-32, 12.00000000000000000 ) ) ;
#80 = ORIENTED_EDGE ( 'NONE', *, *, #91, .T. ) ;
#81 = DIRECTION ( 'NONE',  ( 3.491481338843133355E-15, -1.224646799147353207E-16, 1.000000000000000000 ) ) ;
#82 = CIRCLE ( 'NONE', #74, 2.900000000000030109 ) ;
#83 = CYLINDRICAL_SURFACE ( 'NONE', #232, 2.900000000000030109 ) ;
#84 = ORIENTED_EDGE ( 'NONE', *, *, #22, .F. ) ;
#85 = CARTESIAN_POINT ( 'NONE',  ( -1.068957861474252001E-30, 3.749399456654687263E-32, -3.061616997868418147E-16 ) ) ;
#86 = ORIENTED_EDGE ( 'NONE', *, *, #191, .F. ) ;
#87 = CARTESIAN_POINT ( 'NONE',  ( 4.734045683141724058E-14, 1.999999999999990452, 13.55884572681205213 ) ) ;
#88 = FACE_OUTER_BOUND ( 'NONE', #176, .T. ) ;
#89 = FACE_OUTER_BOUND ( 'NONE', #28, .T. ) ;
#90 = ORGANIZATION ( 'UNSPECIFIED', 'UNSPECIFIED', '' ) ;
#91 = EDGE_CURVE ( 'NONE', #146, #146, #82, .T. ) ;
#92 =( LENGTH_UNIT ( ) NAMED_UNIT ( * ) SI_UNIT ( .MILLI., .METRE. ) );
#93 = CARTESIAN_POINT ( 'NONE',  ( 2.779219145719134403E-13, 1.999999999999991340, 79.60000000000000853 ) ) ;
#94 = PERSON_AND_ORGANIZATION_ROLE ( 'classification_officer' ) ;
#95 = SHAPE_DEFINITION_REPRESENTATION ( #128, #17 ) ;
#96 = CC_DESIGN_APPROVAL ( #240, ( #9 ) ) ;
#97 = ORIENTED_EDGE ( 'NONE', *, *, #77, .F. ) ;
#98 = DIRECTION ( 'NONE',  ( -4.275831445896958607E-31, -1.000000000000000000, -1.224646799147353207E-16 ) ) ;
#99 = APPROVAL_PERSON_ORGANIZATION ( #23, #36, #154 ) ;
#100 = ORIENTED_EDGE ( 'NONE', *, *, #230, .T. ) ;
#101 = DIRECTION ( 'NONE',  ( -3.491481338843133355E-15, 1.224646799147353207E-16, -1.000000000000000000 ) ) ;
#102 = EDGE_LOOP ( 'NONE', ( #165 ) ) ;
#103 = EDGE_LOOP ( 'NONE', ( #203 ) ) ;
#104 = AXIS2_PLACEMENT_3D ( 'NONE', #79, #27, #98 ) ;
#105 = LOCAL_TIME ( 13, 57, 59.00000000000000000, #75 ) ;
#106 = CARTESIAN_POINT ( 'NONE',  ( 0.0000000000000000000, 0.0000000000000000000, 0.0000000000000000000 ) ) ;
#107 = APPLICATION_CONTEXT ( 'configuration controlled 3d designs of mechanical parts and assemblies' ) ;
#108 = CIRCLE ( 'NONE', #47, 2.000000000000000888 ) ;
#109 = DIRECTION ( 'NONE',  ( 0.0000000000000000000, 1.000000000000000000, 0.0000000000000000000 ) ) ;
#110 = DATE_TIME_ROLE ( 'creation_date' ) ;
#111 = CIRCLE ( 'NONE', #2, 1.999999999999992228 ) ;
#112 = CALENDAR_DATE ( 2021, 2, 12 ) ;
#113 = ADVANCED_FACE ( 'NONE', ( #135 ), #6, .T. ) ;
#114 = CARTESIAN_POINT ( 'NONE',  ( 4.189777606611760026E-14, 2.174651684859714332E-32, 12.00000000000000000 ) ) ;
#115 = DIRECTION ( 'NONE',  ( 0.0000000000000000000, 1.000000000000000000, 0.0000000000000000000 ) ) ;
#116 = EDGE_LOOP ( 'NONE', ( #178 ) ) ;
#117 = DIRECTION ( 'NONE',  ( -3.491481338843133355E-15, 1.224646799147353207E-16, -1.000000000000000000 ) ) ;
#118 = ADVANCED_FACE ( 'NONE', ( #78 ), #198, .F. ) ;
#119 = LOCAL_TIME ( 13, 57, 59.00000000000000000, #150 ) ;
#120 = FACE_OUTER_BOUND ( 'NONE', #7, .T. ) ;
#121 = COORDINATED_UNIVERSAL_TIME_OFFSET ( 1, 0, .AHEAD. ) ;
#122 = DIRECTION ( 'NONE',  ( 0.0000000000000000000, 1.000000000000000000, 0.0000000000000000000 ) ) ;
#123 =( NAMED_UNIT ( * ) SI_UNIT ( $, .STERADIAN. ) SOLID_ANGLE_UNIT ( ) );
#124 = CIRCLE ( 'NONE', #38, 2.500000000000028866 ) ;
#125 = MECHANICAL_CONTEXT ( 'NONE', #107, 'mechanical' ) ;
#126 = PRODUCT_DEFINITION_FORMATION_WITH_SPECIFIED_SOURCE ( 'ANY', '', #60, .NOT_KNOWN. ) ;
#127 = PERSON_AND_ORGANIZATION ( #132, #90 ) ;
#128 = PRODUCT_DEFINITION_SHAPE ( 'NONE', 'NONE',  #9 ) ;
#129 =( NAMED_UNIT ( * ) PLANE_ANGLE_UNIT ( ) SI_UNIT ( $, .RADIAN. ) );
#130 = CC_DESIGN_APPROVAL ( #34, ( #126 ) ) ;
#131 = ADVANCED_FACE ( 'NONE', ( #179 ), #138, .F. ) ;
#132 = PERSON ( 'UNSPECIFIED', 'UNSPECIFIED', 'UNSPECIFIED', ('UNSPECIFIED'), ('UNSPECIFIED'), ('UNSPECIFIED') ) ;
#133 = DIRECTION ( 'NONE',  ( 4.275831445896958607E-31, 1.000000000000000000, 1.224646799147353207E-16 ) ) ;
#134 = APPROVAL_STATUS ( 'not_yet_approved' ) ;
#135 = FACE_OUTER_BOUND ( 'NONE', #103, .T. ) ;
#136 = CARTESIAN_POINT ( 'NONE',  ( 4.189777606611760026E-14, -1.469576158976823947E-15, 12.00000000000000000 ) ) ;
#137 = FACE_OUTER_BOUND ( 'NONE', #218, .T. ) ;
#138 = PLANE ( 'NONE',  #104 ) ;
#139 = FACE_OUTER_BOUND ( 'NONE', #159, .T. ) ;
#140 = CARTESIAN_POINT ( 'NONE',  ( 2.793185071074506684E-13, 1.599999999999991207, 80.00000000000000000 ) ) ;
#141 = DATE_AND_TIME ( #237, #69 ) ;
#142 = ORIENTED_EDGE ( 'NONE', *, *, #91, .F. ) ;
#143 = DIRECTION ( 'NONE',  ( -3.491481338843133355E-15, 1.224646799147353207E-16, -1.000000000000000000 ) ) ;
#144 = AXIS2_PLACEMENT_3D ( 'NONE', #106, #13, #147 ) ;
#145 =( GEOMETRIC_REPRESENTATION_CONTEXT ( 3 ) GLOBAL_UNCERTAINTY_ASSIGNED_CONTEXT ( ( #171 ) ) GLOBAL_UNIT_ASSIGNED_CONTEXT ( ( #92, #129, #123 ) ) REPRESENTATION_CONTEXT ( 'NONE', 'WORKASPACE' ) );
#146 = VERTEX_POINT ( 'NONE', #66 ) ;
#147 = DIRECTION ( 'NONE',  ( 1.000000000000000000, 0.0000000000000000000, 0.0000000000000000000 ) ) ;
#148 = AXIS2_PLACEMENT_3D ( 'NONE', #32, #182, #12 ) ;
#149 = VERTEX_POINT ( 'NONE', #170 ) ;
#150 = COORDINATED_UNIVERSAL_TIME_OFFSET ( 1, 0, .AHEAD. ) ;
#151 = APPROVAL_PERSON_ORGANIZATION ( #206, #240, #224 ) ;
#152 = MANIFOLD_SOLID_BREP ( 'Corps-Déplacer/Copier1[1]', #173 ) ;
#153 = PERSON_AND_ORGANIZATION_ROLE ( 'creator' ) ;
#154 = APPROVAL_ROLE ( '' ) ;
#155 = DIRECTION ( 'NONE',  ( -4.275831445896958607E-31, -1.000000000000000000, -1.224646799147353207E-16 ) ) ;
#156 = MANIFOLD_SOLID_BREP ( 'Corps-Déplacer/Copier1[2]', #225 ) ;
#157 = CIRCLE ( 'NONE', #189, 1.600000000000000977 ) ;
#158 = DIRECTION ( 'NONE',  ( -4.275831445896958607E-31, -1.000000000000000000, -1.224646799147353207E-16 ) ) ;
#159 = EDGE_LOOP ( 'NONE', ( #86 ) ) ;
#160 = CARTESIAN_POINT ( 'NONE',  ( -5.344789307371260003E-31, 1.874699728327343631E-32, -1.530808498934209073E-16 ) ) ;
#161 = EDGE_LOOP ( 'NONE', ( #197 ) ) ;
#162 = COORDINATED_UNIVERSAL_TIME_OFFSET ( 1, 0, .AHEAD. ) ;
#163 = DIRECTION ( 'NONE',  ( 0.0000000000000000000, 1.000000000000000000, 0.0000000000000000000 ) ) ;
#164 = PERSON_AND_ORGANIZATION ( #132, #90 ) ;
#165 = ORIENTED_EDGE ( 'NONE', *, *, #230, .F. ) ;
#166 = CC_DESIGN_DATE_AND_TIME_ASSIGNMENT ( #59, #76, ( #167 ) ) ;
#167 = SECURITY_CLASSIFICATION ( '', '', #193 ) ;
#168 = PERSON_AND_ORGANIZATION ( #132, #90 ) ;
#169 = CC_DESIGN_DATE_AND_TIME_ASSIGNMENT ( #73, #110, ( #9 ) ) ;
#170 = CARTESIAN_POINT ( 'NONE',  ( 0.0000000000000000000, 2.500000000000028866, 0.0000000000000000000 ) ) ;
#171 = UNCERTAINTY_MEASURE_WITH_UNIT (LENGTH_MEASURE( 1.000000000000000082E-05 ), #92, 'distance_accuracy_value', 'NONE');
#172 = CC_DESIGN_PERSON_AND_ORGANIZATION_ASSIGNMENT ( #44, #94, ( #167 ) ) ;
#173 = CLOSED_SHELL ( 'NONE', ( #131, #40, #14, #56, #118 ) ) ;
#174 = DIRECTION ( 'NONE',  ( -3.491481338843133355E-15, 1.224646799147353207E-16, -1.000000000000000000 ) ) ;
#175 = FACE_OUTER_BOUND ( 'NONE', #161, .T. ) ;
#176 = EDGE_LOOP ( 'NONE', ( #84 ) ) ;
#177 = FACE_OUTER_BOUND ( 'NONE', #216, .T. ) ;
#178 = ORIENTED_EDGE ( 'NONE', *, *, #191, .T. ) ;
#179 = FACE_OUTER_BOUND ( 'NONE', #239, .T. ) ;
#180 = DIRECTION ( 'NONE',  ( 4.275831445896958607E-31, 1.000000000000000000, 1.224646799147353207E-16 ) ) ;
#181 = ADVANCED_FACE ( 'NONE', ( #177, #31 ), #67, .T. ) ;
#182 = DIRECTION ( 'NONE',  ( -3.491481338843133355E-15, 1.224646799147353207E-16, -1.000000000000000000 ) ) ;
#183 = DIRECTION ( 'NONE',  ( -3.491481338843133355E-15, 1.224646799147353207E-16, -1.000000000000000000 ) ) ;
#184 = CIRCLE ( 'NONE', #221, 2.900000000000030109 ) ;
#185 = CC_DESIGN_SECURITY_CLASSIFICATION ( #167, ( #126 ) ) ;
#186 = PRODUCT_RELATED_PRODUCT_CATEGORY ( 'detail', '', ( #60 ) ) ;
#187 = CARTESIAN_POINT ( 'NONE',  ( 2.793185071074506684E-13, -9.797174393178826052E-15, 80.00000000000000000 ) ) ;
#188 = APPROVAL_STATUS ( 'not_yet_approved' ) ;
#189 = AXIS2_PLACEMENT_3D ( 'NONE', #187, #19, #109 ) ;
#190 = CALENDAR_DATE ( 2021, 2, 12 ) ;
#191 = EDGE_CURVE ( 'NONE', #223, #223, #111, .T. ) ;
#192 = DIRECTION ( 'NONE',  ( -3.491481338843133355E-15, 1.224646799147353207E-16, -1.000000000000000000 ) ) ;
#193 = SECURITY_CLASSIFICATION_LEVEL ( 'unclassified' ) ;
#194 = DIRECTION ( 'NONE',  ( 4.275831445896958607E-31, 1.000000000000000000, 1.224646799147353207E-16 ) ) ;
#195 = CARTESIAN_POINT ( 'NONE',  ( 4.189777606611760026E-14, -1.469576158976823947E-15, 12.00000000000000000 ) ) ;
#196 = DIRECTION ( 'NONE',  ( -3.491481338843133355E-15, 1.224646799147353207E-16, -1.000000000000000000 ) ) ;
#197 = ORIENTED_EDGE ( 'NONE', *, *, #45, .F. ) ;
#198 = PLANE ( 'NONE',  #29 ) ;
#199 = CONICAL_SURFACE ( 'NONE', #227, 1.600000000000000977, 0.7853981633974512766 ) ;
#200 = CARTESIAN_POINT ( 'NONE',  ( 4.734045683141724058E-14, -1.660479701947314750E-15, 13.55884572681205213 ) ) ;
#201 = CYLINDRICAL_SURFACE ( 'NONE', #148, 1.999999999999996669 ) ;
#202 = VERTEX_POINT ( 'NONE', #1 ) ;
#203 = ORIENTED_EDGE ( 'NONE', *, *, #222, .T. ) ;
#204 = CARTESIAN_POINT ( 'NONE',  ( 4.189777606611760026E-14, 2.900000000000028777, 12.00000000000000000 ) ) ;
#205 = AXIS2_PLACEMENT_3D ( 'NONE', #114, #24, #155 ) ;
#206 = PERSON_AND_ORGANIZATION ( #132, #90 ) ;
#207 = PERSON_AND_ORGANIZATION ( #132, #90 ) ;
#208 = AXIS2_PLACEMENT_3D ( 'NONE', #195, #241, #70 ) ;
#209 = CC_DESIGN_PERSON_AND_ORGANIZATION_ASSIGNMENT ( #207, #153, ( #126 ) ) ;
#210 = PLANE ( 'NONE',  #205 ) ;
#211 = ADVANCED_FACE ( 'NONE', ( #63, #137 ), #83, .T. ) ;
#212 = DIRECTION ( 'NONE',  ( 4.275831445896958607E-31, 1.000000000000000000, 1.224646799147353207E-16 ) ) ;
#213 = DIRECTION ( 'NONE',  ( 3.984682643559756701E-31, 1.000000000000000000, 1.308519863344560733E-16 ) ) ;
#214 = DESIGN_CONTEXT ( 'detailed design', #49, 'design' ) ;
#215 = ORIENTED_EDGE ( 'NONE', *, *, #222, .F. ) ;
#216 = EDGE_LOOP ( 'NONE', ( #80 ) ) ;
#217 = CARTESIAN_POINT ( 'NONE',  ( 0.0000000000000000000, 0.0000000000000000000, 0.0000000000000000000 ) ) ;
#218 = EDGE_LOOP ( 'NONE', ( #142 ) ) ;
#219 = APPROVAL_DATE_TIME ( #141, #34 ) ;
#220 = EDGE_LOOP ( 'NONE', ( #215 ) ) ;
#221 = AXIS2_PLACEMENT_3D ( 'NONE', #136, #174, #115 ) ;
#222 = EDGE_CURVE ( 'NONE', #149, #149, #124, .T. ) ;
#223 = VERTEX_POINT ( 'NONE', #87 ) ;
#224 = APPROVAL_ROLE ( '' ) ;
#225 = CLOSED_SHELL ( 'NONE', ( #211, #72, #113, #181 ) ) ;
#226 = PERSON_AND_ORGANIZATION_ROLE ( 'design_owner' ) ;
#227 = AXIS2_PLACEMENT_3D ( 'NONE', #234, #192, #4 ) ;
#228 = DIRECTION ( 'NONE',  ( -3.491481338843133355E-15, 1.224646799147353207E-16, -1.000000000000000000 ) ) ;
#229 = PERSON_AND_ORGANIZATION ( #132, #90 ) ;
#230 = EDGE_CURVE ( 'NONE', #35, #35, #157, .T. ) ;
#231 = FACE_BOUND ( 'NONE', #11, .T. ) ;
#232 = AXIS2_PLACEMENT_3D ( 'NONE', #217, #101, #180 ) ;
#233 = DIRECTION ( 'NONE',  ( 0.0000000000000000000, 1.000000000000000000, 0.0000000000000000000 ) ) ;
#234 = CARTESIAN_POINT ( 'NONE',  ( 2.793185071074506684E-13, -9.797174393178826052E-15, 80.00000000000000000 ) ) ;
#235 = CC_DESIGN_PERSON_AND_ORGANIZATION_ASSIGNMENT ( #164, #68, ( #9 ) ) ;
#236 = ORIENTED_EDGE ( 'NONE', *, *, #22, .T. ) ;
#237 = CALENDAR_DATE ( 2021, 2, 12 ) ;
#238 = LOCAL_TIME ( 13, 57, 59.00000000000000000, #57 ) ;
#239 = EDGE_LOOP ( 'NONE', ( #65 ) ) ;
#240 = APPROVAL ( #243, 'UNSPECIFIED' ) ;
#241 = DIRECTION ( 'NONE',  ( -3.491481338843133355E-15, 1.224646799147353207E-16, -1.000000000000000000 ) ) ;
#242 = AXIS2_PLACEMENT_3D ( 'NONE', #8, #81, #158 ) ;
#243 = APPROVAL_STATUS ( 'not_yet_approved' ) ;
ENDSEC;
END-ISO-10303-21;
