ISO-10303-21;
HEADER;
FILE_DESCRIPTION (( 'STEP AP203' ),
    '1' );
FILE_NAME ('321801.step',
    '2021-12-02T12:57:55',
    ( '' ),
    ( '' ),
    'SwSTEP 2.0',
    'SolidWorks 2019',
    '' );
FILE_SCHEMA (( 'CONFIG_CONTROL_DESIGN' ));
ENDSEC;

DATA;
#1 = EDGE_LOOP ( 'NONE', ( #25 ) ) ;
#2 = ORIENTED_EDGE ( 'NONE', *, *, #105, .T. ) ;
#3 = CC_DESIGN_PERSON_AND_ORGANIZATION_ASSIGNMENT ( #78, #226, ( #234 ) ) ;
#4 = ORGANIZATION ( 'UNSPECIFIED', 'UNSPECIFIED', '' ) ;
#5 = ORIENTED_EDGE ( 'NONE', *, *, #81, .T. ) ;
#6 = EDGE_LOOP ( 'NONE', ( #63 ) ) ;
#7 = FACE_BOUND ( 'NONE', #83, .T. ) ;
#8 = DIRECTION ( 'NONE',  ( -3.491481338843133355E-15, 1.224646799147353207E-16, -1.000000000000000000 ) ) ;
#9 = DIRECTION ( 'NONE',  ( -3.491481338843133355E-15, 1.224646799147353207E-16, -1.000000000000000000 ) ) ;
#10 = AXIS2_PLACEMENT_3D ( 'NONE', #32, #196, #49 ) ;
#11 = DIRECTION ( 'NONE',  ( -3.491481338843133355E-15, 1.224646799147353207E-16, -1.000000000000000000 ) ) ;
#12 = ADVANCED_FACE ( 'NONE', ( #80, #41 ), #56, .T. ) ;
#13 = APPROVAL_DATE_TIME ( #72, #151 ) ;
#14 = FACE_BOUND ( 'NONE', #155, .T. ) ;
#15 = AXIS2_PLACEMENT_3D ( 'NONE', #30, #70, #90 ) ;
#16 = VERTEX_POINT ( 'NONE', #167 ) ;
#17 = APPROVAL_STATUS ( 'not_yet_approved' ) ;
#18 = CALENDAR_DATE ( 2021, 2, 12 ) ;
#19 = LOCAL_TIME ( 13, 57, 55.00000000000000000, #150 ) ;
#20 = EDGE_LOOP ( 'NONE', ( #229 ) ) ;
#21 = CALENDAR_DATE ( 2021, 2, 12 ) ;
#22 = CC_DESIGN_DATE_AND_TIME_ASSIGNMENT ( #112, #187, ( #139 ) ) ;
#23 = EDGE_LOOP ( 'NONE', ( #26 ) ) ;
#24 = CONICAL_SURFACE ( 'NONE', #100, 2.875000000000030198, 0.5235987755983002589 ) ;
#25 = ORIENTED_EDGE ( 'NONE', *, *, #119, .F. ) ;
#26 = ORIENTED_EDGE ( 'NONE', *, *, #119, .T. ) ;
#27 = CARTESIAN_POINT ( 'NONE',  ( 4.189777606611760026E-14, 2.155904687576441249E-32, 12.00000000000000000 ) ) ;
#28 = CIRCLE ( 'NONE', #206, 1.999999999999992228 ) ;
#29 = DIRECTION ( 'NONE',  ( -3.491481338843133355E-15, 1.224646799147353207E-16, -1.000000000000000000 ) ) ;
#30 = CARTESIAN_POINT ( 'NONE',  ( 4.189777606611760026E-14, -1.469576158976823947E-15, 12.00000000000000000 ) ) ;
#31 = DIRECTION ( 'NONE',  ( 4.275831445896958607E-31, 1.000000000000000000, 1.224646799147353207E-16 ) ) ;
#32 = CARTESIAN_POINT ( 'NONE',  ( 0.0000000000000000000, 0.0000000000000000000, 0.0000000000000000000 ) ) ;
#33 = CALENDAR_DATE ( 2021, 2, 12 ) ;
#34 = DIRECTION ( 'NONE',  ( -4.275831445896958607E-31, -1.000000000000000000, -1.224646799147353207E-16 ) ) ;
#35 = AXIS2_PLACEMENT_3D ( 'NONE', #219, #200, #66 ) ;
#36 = ADVANCED_FACE ( 'NONE', ( #7, #84 ), #24, .T. ) ;
#37 = PERSON_AND_ORGANIZATION ( #79, #4 ) ;
#38 =( LENGTH_UNIT ( ) NAMED_UNIT ( * ) SI_UNIT ( .MILLI., .METRE. ) );
#39 = PERSON_AND_ORGANIZATION_ROLE ( 'classification_officer' ) ;
#40 = AXIS2_PLACEMENT_3D ( 'NONE', #231, #215, #121 ) ;
#41 = FACE_BOUND ( 'NONE', #23, .T. ) ;
#42 = DIRECTION ( 'NONE',  ( -3.491481338843133355E-15, 1.224646799147353207E-16, -1.000000000000000000 ) ) ;
#43 = MANIFOLD_SOLID_BREP ( 'Corps-Déplacer/Copier1[2]', #110 ) ;
#44 = DIRECTION ( 'NONE',  ( 0.0000000000000000000, 1.000000000000000000, 0.0000000000000000000 ) ) ;
#45 = CONICAL_SURFACE ( 'NONE', #40, 2.475000000000028955, 0.7853981633974501664 ) ;
#46 = FACE_OUTER_BOUND ( 'NONE', #1, .T. ) ;
#47 = DATE_TIME_ROLE ( 'classification_date' ) ;
#48 = CC_DESIGN_SECURITY_CLASSIFICATION ( #115, ( #234 ) ) ;
#49 = DIRECTION ( 'NONE',  ( 4.275831445896958607E-31, 1.000000000000000000, 1.224646799147353207E-16 ) ) ;
#50 = SHAPE_DEFINITION_REPRESENTATION ( #67, #58 ) ;
#51 = DIRECTION ( 'NONE',  ( 3.491481338843133355E-15, -1.224646799147353207E-16, 1.000000000000000000 ) ) ;
#52 = APPROVAL_ROLE ( '' ) ;
#53 = APPROVAL_PERSON_ORGANIZATION ( #159, #151, #122 ) ;
#54 = APPLICATION_PROTOCOL_DEFINITION ( 'international standard', 'config_control_design', 1994, #233 ) ;
#55 = EDGE_CURVE ( 'NONE', #144, #144, #237, .T. ) ;
#56 = CONICAL_SURFACE ( 'NONE', #172, 1.600000000000000977, 0.7853981633974512766 ) ;
#57 = VERTEX_POINT ( 'NONE', #186 ) ;
#58 = ADVANCED_BREP_SHAPE_REPRESENTATION ( '321801', ( #126, #43, #154 ), #99 ) ;
#59 = CC_DESIGN_PERSON_AND_ORGANIZATION_ASSIGNMENT ( #169, #220, ( #139 ) ) ;
#60 = APPROVAL_DATE_TIME ( #225, #188 ) ;
#61 = ORIENTED_EDGE ( 'NONE', *, *, #55, .T. ) ;
#62 = ORIENTED_EDGE ( 'NONE', *, *, #73, .T. ) ;
#63 = ORIENTED_EDGE ( 'NONE', *, *, #73, .F. ) ;
#64 = CC_DESIGN_DATE_AND_TIME_ASSIGNMENT ( #211, #47, ( #115 ) ) ;
#65 = PLANE ( 'NONE',  #182 ) ;
#66 = DIRECTION ( 'NONE',  ( 4.275831445896958607E-31, 1.000000000000000000, 1.224646799147353207E-16 ) ) ;
#67 = PRODUCT_DEFINITION_SHAPE ( 'NONE', 'NONE',  #139 ) ;
#68 = FACE_OUTER_BOUND ( 'NONE', #156, .T. ) ;
#69 = CLOSED_SHELL ( 'NONE', ( #203, #36, #75, #12, #210 ) ) ;
#70 = DIRECTION ( 'NONE',  ( -3.491481338843133355E-15, 1.224646799147353207E-16, -1.000000000000000000 ) ) ;
#71 = CARTESIAN_POINT ( 'NONE',  ( 4.189777606611760026E-14, -1.469576158976823947E-15, 12.00000000000000000 ) ) ;
#72 = DATE_AND_TIME ( #163, #124 ) ;
#73 = EDGE_CURVE ( 'NONE', #241, #241, #28, .T. ) ;
#74 =( NAMED_UNIT ( * ) PLANE_ANGLE_UNIT ( ) SI_UNIT ( $, .RADIAN. ) );
#75 = ADVANCED_FACE ( 'NONE', ( #85, #104 ), #89, .T. ) ;
#76 = CIRCLE ( 'NONE', #212, 2.875000000000030198 ) ;
#77 = CALENDAR_DATE ( 2021, 2, 12 ) ;
#78 = PERSON_AND_ORGANIZATION ( #79, #4 ) ;
#79 = PERSON ( 'UNSPECIFIED', 'UNSPECIFIED', 'UNSPECIFIED', ('UNSPECIFIED'), ('UNSPECIFIED'), ('UNSPECIFIED') ) ;
#80 = FACE_OUTER_BOUND ( 'NONE', #20, .T. ) ;
#81 = EDGE_CURVE ( 'NONE', #125, #125, #128, .T. ) ;
#82 = LOCAL_TIME ( 13, 57, 55.00000000000000000, #175 ) ;
#83 = EDGE_LOOP ( 'NONE', ( #62 ) ) ;
#84 = FACE_OUTER_BOUND ( 'NONE', #131, .T. ) ;
#85 = FACE_OUTER_BOUND ( 'NONE', #6, .T. ) ;
#86 = CARTESIAN_POINT ( 'NONE',  ( 2.779219145719134403E-13, -9.748188521212932624E-15, 79.60000000000000853 ) ) ;
#87 = CIRCLE ( 'NONE', #227, 2.000000000000000888 ) ;
#88 = APPROVAL_STATUS ( 'not_yet_approved' ) ;
#89 = CYLINDRICAL_SURFACE ( 'NONE', #35, 1.999999999999996669 ) ;
#90 = DIRECTION ( 'NONE',  ( 0.0000000000000000000, 1.000000000000000000, 0.0000000000000000000 ) ) ;
#91 = PERSON_AND_ORGANIZATION_ROLE ( 'design_owner' ) ;
#92 = AXIS2_PLACEMENT_3D ( 'NONE', #107, #183, #31 ) ;
#93 = CARTESIAN_POINT ( 'NONE',  ( 4.718927125460336536E-14, 1.999999999999990452, 13.51554445662282866 ) ) ;
#94 = APPROVAL_ROLE ( '' ) ;
#95 = APPROVAL_PERSON_ORGANIZATION ( #222, #188, #52 ) ;
#96 = COORDINATED_UNIVERSAL_TIME_OFFSET ( 1, 0, .AHEAD. ) ;
#97 = PERSON_AND_ORGANIZATION_ROLE ( 'creator' ) ;
#98 = ORIENTED_EDGE ( 'NONE', *, *, #184, .F. ) ;
#99 =( GEOMETRIC_REPRESENTATION_CONTEXT ( 3 ) GLOBAL_UNCERTAINTY_ASSIGNED_CONTEXT ( ( #138 ) ) GLOBAL_UNIT_ASSIGNED_CONTEXT ( ( #38, #74, #242 ) ) REPRESENTATION_CONTEXT ( 'NONE', 'WORKASPACE' ) );
#100 = AXIS2_PLACEMENT_3D ( 'NONE', #235, #116, #106 ) ;
#101 = EDGE_LOOP ( 'NONE', ( #2 ) ) ;
#102 = DIRECTION ( 'NONE',  ( -4.275831445896958607E-31, -1.000000000000000000, -1.224646799147353207E-16 ) ) ;
#103 = PLANE ( 'NONE',  #132 ) ;
#104 = FACE_OUTER_BOUND ( 'NONE', #101, .T. ) ;
#105 = EDGE_CURVE ( 'NONE', #208, #208, #87, .T. ) ;
#106 = DIRECTION ( 'NONE',  ( 0.0000000000000000000, 1.000000000000000000, 0.0000000000000000000 ) ) ;
#107 = CARTESIAN_POINT ( 'NONE',  ( -5.291341414297547342E-31, 1.855952731044070548E-32, -1.515500413944867131E-16 ) ) ;
#108 = PRODUCT_RELATED_PRODUCT_CATEGORY ( 'detail', '', ( #133 ) ) ;
#109 = CARTESIAN_POINT ( 'NONE',  ( 4.189777606611760026E-14, 2.875000000000028866, 12.00000000000000000 ) ) ;
#110 = CLOSED_SHELL ( 'NONE', ( #148, #232, #168, #191 ) ) ;
#111 = DIRECTION ( 'NONE',  ( 1.000000000000000000, 0.0000000000000000000, 0.0000000000000000000 ) ) ;
#112 = DATE_AND_TIME ( #77, #179 ) ;
#113 = EDGE_LOOP ( 'NONE', ( #213 ) ) ;
#114 = EDGE_LOOP ( 'NONE', ( #5 ) ) ;
#115 = SECURITY_CLASSIFICATION ( '', '', #171 ) ;
#116 = DIRECTION ( 'NONE',  ( -3.491481338843133355E-15, 1.224646799147353207E-16, -1.000000000000000000 ) ) ;
#117 = DIRECTION ( 'NONE',  ( 4.275831445896957731E-31, 1.000000000000000000, 1.224646799147352961E-16 ) ) ;
#118 = AXIS2_PLACEMENT_3D ( 'NONE', #137, #239, #123 ) ;
#119 = EDGE_CURVE ( 'NONE', #16, #16, #224, .T. ) ;
#120 = PLANE ( 'NONE',  #136 ) ;
#121 = DIRECTION ( 'NONE',  ( -4.275831445896957731E-31, -1.000000000000000000, -1.224646799147352961E-16 ) ) ;
#122 = APPROVAL_ROLE ( '' ) ;
#123 = DIRECTION ( 'NONE',  ( 0.0000000000000000000, 1.000000000000000000, 0.0000000000000000000 ) ) ;
#124 = LOCAL_TIME ( 13, 57, 55.00000000000000000, #140 ) ;
#125 = VERTEX_POINT ( 'NONE', #205 ) ;
#126 = MANIFOLD_SOLID_BREP ( 'Corps-Déplacer/Copier1[1]', #69 ) ;
#127 = APPROVAL_STATUS ( 'not_yet_approved' ) ;
#128 = CIRCLE ( 'NONE', #192, 2.475000000000028955 ) ;
#129 = CARTESIAN_POINT ( 'NONE',  ( 4.189777606611760026E-14, 2.155904687576441249E-32, 12.00000000000000000 ) ) ;
#130 = APPLICATION_CONTEXT ( 'configuration controlled 3d designs of mechanical parts and assemblies' ) ;
#131 = EDGE_LOOP ( 'NONE', ( #98 ) ) ;
#132 = AXIS2_PLACEMENT_3D ( 'NONE', #236, #8, #160 ) ;
#133 = PRODUCT ( '321801', '321801', '', ( #170 ) ) ;
#134 = ORIENTED_EDGE ( 'NONE', *, *, #209, .T. ) ;
#135 = FACE_OUTER_BOUND ( 'NONE', #190, .T. ) ;
#136 = AXIS2_PLACEMENT_3D ( 'NONE', #129, #51, #34 ) ;
#137 = CARTESIAN_POINT ( 'NONE',  ( 2.793185071074506684E-13, -9.797174393178826052E-15, 80.00000000000000000 ) ) ;
#138 = UNCERTAINTY_MEASURE_WITH_UNIT (LENGTH_MEASURE( 1.000000000000000082E-05 ), #38, 'distance_accuracy_value', 'NONE');
#139 = PRODUCT_DEFINITION ( 'UNKNOWN', '', #234, #157 ) ;
#140 = COORDINATED_UNIVERSAL_TIME_OFFSET ( 1, 0, .AHEAD. ) ;
#141 = DIRECTION ( 'NONE',  ( -3.491481338843133355E-15, 1.224646799147353207E-16, -1.000000000000000000 ) ) ;
#142 = CARTESIAN_POINT ( 'NONE',  ( 2.793185071074506684E-13, -9.797174393178826052E-15, 80.00000000000000000 ) ) ;
#143 = CARTESIAN_POINT ( 'NONE',  ( 4.718927125460336536E-14, -1.655176825753690121E-15, 13.51554445662282866 ) ) ;
#144 = VERTEX_POINT ( 'NONE', #147 ) ;
#145 = DATE_AND_TIME ( #33, #152 ) ;
#146 = APPROVAL_PERSON_ORGANIZATION ( #202, #195, #94 ) ;
#147 = CARTESIAN_POINT ( 'NONE',  ( 4.189777606611760026E-14, 2.875000000000028866, 12.00000000000000000 ) ) ;
#148 = ADVANCED_FACE ( 'NONE', ( #135, #201 ), #214, .T. ) ;
#149 = CIRCLE ( 'NONE', #15, 2.875000000000030198 ) ;
#150 = COORDINATED_UNIVERSAL_TIME_OFFSET ( 1, 0, .AHEAD. ) ;
#151 = APPROVAL ( #88, 'UNSPECIFIED' ) ;
#152 = LOCAL_TIME ( 13, 57, 55.00000000000000000, #166 ) ;
#153 = PERSON_AND_ORGANIZATION ( #79, #4 ) ;
#154 = AXIS2_PLACEMENT_3D ( 'NONE', #165, #207, #111 ) ;
#155 = EDGE_LOOP ( 'NONE', ( #194 ) ) ;
#156 = EDGE_LOOP ( 'NONE', ( #176 ) ) ;
#157 = DESIGN_CONTEXT ( 'detailed design', #233, 'design' ) ;
#158 = DIRECTION ( 'NONE',  ( 0.0000000000000000000, 1.000000000000000000, 0.0000000000000000000 ) ) ;
#159 = PERSON_AND_ORGANIZATION ( #79, #4 ) ;
#160 = DIRECTION ( 'NONE',  ( 4.275831445896958607E-31, 1.000000000000000000, 1.224646799147353207E-16 ) ) ;
#161 = DIRECTION ( 'NONE',  ( -3.491481338843133355E-15, 1.224646799147353207E-16, -1.000000000000000000 ) ) ;
#162 = CC_DESIGN_PERSON_AND_ORGANIZATION_ASSIGNMENT ( #153, #97, ( #234 ) ) ;
#163 = CALENDAR_DATE ( 2021, 2, 12 ) ;
#164 = FACE_OUTER_BOUND ( 'NONE', #114, .T. ) ;
#165 = CARTESIAN_POINT ( 'NONE',  ( 0.0000000000000000000, 0.0000000000000000000, 0.0000000000000000000 ) ) ;
#166 = COORDINATED_UNIVERSAL_TIME_OFFSET ( 1, 0, .AHEAD. ) ;
#167 = CARTESIAN_POINT ( 'NONE',  ( 2.793185071074506684E-13, 1.599999999999991207, 80.00000000000000000 ) ) ;
#168 = ADVANCED_FACE ( 'NONE', ( #164 ), #238, .T. ) ;
#169 = PERSON_AND_ORGANIZATION ( #79, #4 ) ;
#170 = MECHANICAL_CONTEXT ( 'NONE', #130, 'mechanical' ) ;
#171 = SECURITY_CLASSIFICATION_LEVEL ( 'unclassified' ) ;
#172 = AXIS2_PLACEMENT_3D ( 'NONE', #142, #141, #158 ) ;
#173 = EDGE_LOOP ( 'NONE', ( #134 ) ) ;
#174 = CC_DESIGN_APPROVAL ( #195, ( #139 ) ) ;
#175 = COORDINATED_UNIVERSAL_TIME_OFFSET ( 1, 0, .AHEAD. ) ;
#176 = ORIENTED_EDGE ( 'NONE', *, *, #55, .F. ) ;
#177 = CARTESIAN_POINT ( 'NONE',  ( 1.396592535537252159E-15, -4.898587196589408145E-17, 0.3999999999999996336 ) ) ;
#178 = DIRECTION ( 'NONE',  ( 4.019332057851580725E-31, 1.000000000000000000, 1.131341397376166739E-16 ) ) ;
#179 = LOCAL_TIME ( 13, 57, 55.00000000000000000, #96 ) ;
#180 = FACE_OUTER_BOUND ( 'NONE', #173, .T. ) ;
#181 = FACE_OUTER_BOUND ( 'NONE', #113, .T. ) ;
#182 = AXIS2_PLACEMENT_3D ( 'NONE', #27, #198, #102 ) ;
#183 = DIRECTION ( 'NONE',  ( -3.491481338843133355E-15, 1.224646799147353207E-16, -1.000000000000000000 ) ) ;
#184 = EDGE_CURVE ( 'NONE', #204, #204, #149, .T. ) ;
#185 = APPLICATION_PROTOCOL_DEFINITION ( 'international standard', 'config_control_design', 1994, #130 ) ;
#186 = CARTESIAN_POINT ( 'NONE',  ( 1.396592535537253342E-15, 2.875000000000030198, 0.3999999999999999667 ) ) ;
#187 = DATE_TIME_ROLE ( 'creation_date' ) ;
#188 = APPROVAL ( #17, 'UNSPECIFIED' ) ;
#189 = EDGE_LOOP ( 'NONE', ( #193 ) ) ;
#190 = EDGE_LOOP ( 'NONE', ( #61 ) ) ;
#191 = ADVANCED_FACE ( 'NONE', ( #180, #14 ), #45, .T. ) ;
#192 = AXIS2_PLACEMENT_3D ( 'NONE', #199, #9, #117 ) ;
#193 = ORIENTED_EDGE ( 'NONE', *, *, #209, .F. ) ;
#194 = ORIENTED_EDGE ( 'NONE', *, *, #81, .F. ) ;
#195 = APPROVAL ( #127, 'UNSPECIFIED' ) ;
#196 = DIRECTION ( 'NONE',  ( -3.491481338843133355E-15, 1.224646799147353207E-16, -1.000000000000000000 ) ) ;
#197 = AXIS2_PLACEMENT_3D ( 'NONE', #71, #11, #216 ) ;
#198 = DIRECTION ( 'NONE',  ( 3.491481338843133355E-15, -1.224646799147353207E-16, 1.000000000000000000 ) ) ;
#199 = CARTESIAN_POINT ( 'NONE',  ( -1.058268282859509468E-30, 3.711905462088141096E-32, -3.031000827889734261E-16 ) ) ;
#200 = DIRECTION ( 'NONE',  ( -3.491481338843133355E-15, 1.224646799147353207E-16, -1.000000000000000000 ) ) ;
#201 = FACE_OUTER_BOUND ( 'NONE', #189, .T. ) ;
#202 = PERSON_AND_ORGANIZATION ( #79, #4 ) ;
#203 = ADVANCED_FACE ( 'NONE', ( #181 ), #65, .F. ) ;
#204 = VERTEX_POINT ( 'NONE', #109 ) ;
#205 = CARTESIAN_POINT ( 'NONE',  ( 0.0000000000000000000, 2.475000000000028955, 0.0000000000000000000 ) ) ;
#206 = AXIS2_PLACEMENT_3D ( 'NONE', #143, #42, #217 ) ;
#207 = DIRECTION ( 'NONE',  ( 0.0000000000000000000, 0.0000000000000000000, 1.000000000000000000 ) ) ;
#208 = VERTEX_POINT ( 'NONE', #223 ) ;
#209 = EDGE_CURVE ( 'NONE', #57, #57, #76, .T. ) ;
#210 = ADVANCED_FACE ( 'NONE', ( #46 ), #103, .F. ) ;
#211 = DATE_AND_TIME ( #21, #82 ) ;
#212 = AXIS2_PLACEMENT_3D ( 'NONE', #177, #29, #178 ) ;
#213 = ORIENTED_EDGE ( 'NONE', *, *, #184, .T. ) ;
#214 = CYLINDRICAL_SURFACE ( 'NONE', #10, 2.875000000000030198 ) ;
#215 = DIRECTION ( 'NONE',  ( 3.491481338843133355E-15, -1.224646799147353207E-16, 1.000000000000000000 ) ) ;
#216 = DIRECTION ( 'NONE',  ( 0.0000000000000000000, 1.000000000000000000, 0.0000000000000000000 ) ) ;
#217 = DIRECTION ( 'NONE',  ( 0.0000000000000000000, 1.000000000000000000, 0.0000000000000000000 ) ) ;
#218 = CC_DESIGN_APPROVAL ( #188, ( #234 ) ) ;
#219 = CARTESIAN_POINT ( 'NONE',  ( 0.0000000000000000000, 0.0000000000000000000, 0.0000000000000000000 ) ) ;
#220 = PERSON_AND_ORGANIZATION_ROLE ( 'creator' ) ;
#221 = CC_DESIGN_PERSON_AND_ORGANIZATION_ASSIGNMENT ( #243, #39, ( #115 ) ) ;
#222 = PERSON_AND_ORGANIZATION ( #79, #4 ) ;
#223 = CARTESIAN_POINT ( 'NONE',  ( 2.779219145719134403E-13, 1.999999999999991340, 79.60000000000000853 ) ) ;
#224 = CIRCLE ( 'NONE', #118, 1.600000000000000977 ) ;
#225 = DATE_AND_TIME ( #18, #19 ) ;
#226 = PERSON_AND_ORGANIZATION_ROLE ( 'design_supplier' ) ;
#227 = AXIS2_PLACEMENT_3D ( 'NONE', #86, #161, #44 ) ;
#228 = CC_DESIGN_APPROVAL ( #151, ( #115 ) ) ;
#229 = ORIENTED_EDGE ( 'NONE', *, *, #105, .F. ) ;
#230 = CC_DESIGN_PERSON_AND_ORGANIZATION_ASSIGNMENT ( #37, #91, ( #133 ) ) ;
#231 = CARTESIAN_POINT ( 'NONE',  ( -1.058268282859509468E-30, 3.711905462088141096E-32, -3.031000827889734261E-16 ) ) ;
#232 = ADVANCED_FACE ( 'NONE', ( #68 ), #120, .T. ) ;
#233 = APPLICATION_CONTEXT ( 'configuration controlled 3d designs of mechanical parts and assemblies' ) ;
#234 = PRODUCT_DEFINITION_FORMATION_WITH_SPECIFIED_SOURCE ( 'ANY', '', #133, .NOT_KNOWN. ) ;
#235 = CARTESIAN_POINT ( 'NONE',  ( 4.189777606611760026E-14, -1.469576158976823947E-15, 12.00000000000000000 ) ) ;
#236 = CARTESIAN_POINT ( 'NONE',  ( 2.793185071074506684E-13, 1.199807826129472128E-32, 80.00000000000000000 ) ) ;
#237 = CIRCLE ( 'NONE', #197, 2.875000000000030198 ) ;
#238 = PLANE ( 'NONE',  #92 ) ;
#239 = DIRECTION ( 'NONE',  ( -3.491481338843133355E-15, 1.224646799147353207E-16, -1.000000000000000000 ) ) ;
#240 = APPROVAL_DATE_TIME ( #145, #195 ) ;
#241 = VERTEX_POINT ( 'NONE', #93 ) ;
#242 =( NAMED_UNIT ( * ) SI_UNIT ( $, .STERADIAN. ) SOLID_ANGLE_UNIT ( ) );
#243 = PERSON_AND_ORGANIZATION ( #79, #4 ) ;
ENDSEC;
END-ISO-10303-21;
