ISO-10303-21;
HEADER;
FILE_DESCRIPTION (( 'STEP AP203' ),
    '1' );
FILE_NAME ('321796.step',
    '2021-12-02T12:57:51',
    ( '' ),
    ( '' ),
    'SwSTEP 2.0',
    'SolidWorks 2019',
    '' );
FILE_SCHEMA (( 'CONFIG_CONTROL_DESIGN' ));
ENDSEC;

DATA;
#1 = PERSON_AND_ORGANIZATION ( #234, #127 ) ;
#2 = CC_DESIGN_SECURITY_CLASSIFICATION ( #105, ( #87 ) ) ;
#3 = COORDINATED_UNIVERSAL_TIME_OFFSET ( 1, 0, .AHEAD. ) ;
#4 = PERSON_AND_ORGANIZATION_ROLE ( 'design_owner' ) ;
#5 = CARTESIAN_POINT ( 'NONE',  ( 0.0000000000000000000, 2.450000000000028599, 0.0000000000000000000 ) ) ;
#6 = CARTESIAN_POINT ( 'NONE',  ( 4.703808567778949015E-14, 1.999999999999990452, 13.47224318643360697 ) ) ;
#7 = PERSON_AND_ORGANIZATION_ROLE ( 'classification_officer' ) ;
#8 = EDGE_CURVE ( 'NONE', #82, #82, #37, .T. ) ;
#9 = ORIENTED_EDGE ( 'NONE', *, *, #11, .F. ) ;
#10 = EDGE_LOOP ( 'NONE', ( #161 ) ) ;
#11 = EDGE_CURVE ( 'NONE', #176, #176, #95, .T. ) ;
#12 = EDGE_LOOP ( 'NONE', ( #47 ) ) ;
#13 = AXIS2_PLACEMENT_3D ( 'NONE', #107, #71, #222 ) ;
#14 = DIRECTION ( 'NONE',  ( 0.0000000000000000000, 1.000000000000000000, 0.0000000000000000000 ) ) ;
#15 = DIRECTION ( 'NONE',  ( 0.0000000000000000000, 1.000000000000000000, 0.0000000000000000000 ) ) ;
#16 = CARTESIAN_POINT ( 'NONE',  ( -1.047578704244767111E-30, 3.674411467521593835E-32, -3.000384657911050376E-16 ) ) ;
#17 = DESIGN_CONTEXT ( 'detailed design', #201, 'design' ) ;
#18 = DIRECTION ( 'NONE',  ( -3.491481338843133355E-15, 1.224646799147353207E-16, -1.000000000000000000 ) ) ;
#19 = CARTESIAN_POINT ( 'NONE',  ( 1.396592535537252159E-15, -4.898587196589408145E-17, 0.3999999999999996336 ) ) ;
#20 = MECHANICAL_CONTEXT ( 'NONE', #50, 'mechanical' ) ;
#21 = CARTESIAN_POINT ( 'NONE',  ( 0.0000000000000000000, 0.0000000000000000000, 0.0000000000000000000 ) ) ;
#22 = APPROVAL_ROLE ( '' ) ;
#23 = CARTESIAN_POINT ( 'NONE',  ( 4.189777606611760026E-14, 2.850000000000028511, 12.00000000000000000 ) ) ;
#24 = CIRCLE ( 'NONE', #99, 1.999999999999992228 ) ;
#25 = PERSON_AND_ORGANIZATION_ROLE ( 'creator' ) ;
#26 = PERSON_AND_ORGANIZATION ( #234, #127 ) ;
#27 = EDGE_CURVE ( 'NONE', #40, #40, #164, .T. ) ;
#28 = EDGE_LOOP ( 'NONE', ( #141 ) ) ;
#29 = ORIENTED_EDGE ( 'NONE', *, *, #181, .T. ) ;
#30 = CC_DESIGN_PERSON_AND_ORGANIZATION_ASSIGNMENT ( #83, #7, ( #105 ) ) ;
#31 = DIRECTION ( 'NONE',  ( 4.275831445896958607E-31, 1.000000000000000000, 1.224646799147353207E-16 ) ) ;
#32 = AXIS2_PLACEMENT_3D ( 'NONE', #19, #109, #223 ) ;
#33 = FACE_BOUND ( 'NONE', #85, .T. ) ;
#34 = CYLINDRICAL_SURFACE ( 'NONE', #232, 2.850000000000029399 ) ;
#35 = DIRECTION ( 'NONE',  ( 3.491481338843133355E-15, -1.224646799147353207E-16, 1.000000000000000000 ) ) ;
#36 = LOCAL_TIME ( 13, 57, 51.00000000000000000, #138 ) ;
#37 = CIRCLE ( 'NONE', #207, 2.850000000000029843 ) ;
#38 = CARTESIAN_POINT ( 'NONE',  ( 4.189777606611760026E-14, -1.469576158976823947E-15, 12.00000000000000000 ) ) ;
#39 = CC_DESIGN_PERSON_AND_ORGANIZATION_ASSIGNMENT ( #136, #25, ( #42 ) ) ;
#40 = VERTEX_POINT ( 'NONE', #191 ) ;
#41 = DATE_TIME_ROLE ( 'creation_date' ) ;
#42 = PRODUCT_DEFINITION ( 'UNKNOWN', '', #87, #17 ) ;
#43 = COORDINATED_UNIVERSAL_TIME_OFFSET ( 1, 0, .AHEAD. ) ;
#44 = APPROVAL_DATE_TIME ( #179, #65 ) ;
#45 = PERSON_AND_ORGANIZATION ( #234, #127 ) ;
#46 = ORIENTED_EDGE ( 'NONE', *, *, #27, .T. ) ;
#47 = ORIENTED_EDGE ( 'NONE', *, *, #70, .T. ) ;
#48 = ADVANCED_FACE ( 'NONE', ( #147, #96 ), #58, .T. ) ;
#49 = AXIS2_PLACEMENT_3D ( 'NONE', #133, #168, #113 ) ;
#50 = APPLICATION_CONTEXT ( 'configuration controlled 3d designs of mechanical parts and assemblies' ) ;
#51 = EDGE_LOOP ( 'NONE', ( #144 ) ) ;
#52 = PLANE ( 'NONE',  #132 ) ;
#53 = DIRECTION ( 'NONE',  ( 3.491481338843133355E-15, -1.224646799147353207E-16, 1.000000000000000000 ) ) ;
#54 = FACE_OUTER_BOUND ( 'NONE', #197, .T. ) ;
#55 = FACE_OUTER_BOUND ( 'NONE', #140, .T. ) ;
#56 = CARTESIAN_POINT ( 'NONE',  ( 0.0000000000000000000, 0.0000000000000000000, 0.0000000000000000000 ) ) ;
#57 =( GEOMETRIC_REPRESENTATION_CONTEXT ( 3 ) GLOBAL_UNCERTAINTY_ASSIGNED_CONTEXT ( ( #205 ) ) GLOBAL_UNIT_ASSIGNED_CONTEXT ( ( #100, #157, #59 ) ) REPRESENTATION_CONTEXT ( 'NONE', 'WORKASPACE' ) );
#58 = CONICAL_SURFACE ( 'NONE', #175, 2.850000000000029843, 0.5235987755983003700 ) ;
#59 =( NAMED_UNIT ( * ) SI_UNIT ( $, .STERADIAN. ) SOLID_ANGLE_UNIT ( ) );
#60 = APPLICATION_PROTOCOL_DEFINITION ( 'international standard', 'config_control_design', 1994, #50 ) ;
#61 = PERSON_AND_ORGANIZATION_ROLE ( 'creator' ) ;
#62 = PRODUCT_DEFINITION_SHAPE ( 'NONE', 'NONE',  #42 ) ;
#63 = APPROVAL_STATUS ( 'not_yet_approved' ) ;
#64 = ORIENTED_EDGE ( 'NONE', *, *, #117, .T. ) ;
#65 = APPROVAL ( #210, 'UNSPECIFIED' ) ;
#66 = ORIENTED_EDGE ( 'NONE', *, *, #123, .F. ) ;
#67 = DIRECTION ( 'NONE',  ( 4.275831445896958607E-31, 1.000000000000000000, 1.224646799147353207E-16 ) ) ;
#68 = DIRECTION ( 'NONE',  ( 4.275831445896958607E-31, 1.000000000000000000, 1.224646799147353454E-16 ) ) ;
#69 = FACE_OUTER_BOUND ( 'NONE', #10, .T. ) ;
#70 = EDGE_CURVE ( 'NONE', #137, #137, #120, .T. ) ;
#71 = DIRECTION ( 'NONE',  ( -3.491481338843133355E-15, 1.224646799147353207E-16, -1.000000000000000000 ) ) ;
#72 = CARTESIAN_POINT ( 'NONE',  ( 4.189777606611760026E-14, 2.137157690293167892E-32, 12.00000000000000000 ) ) ;
#73 = CC_DESIGN_PERSON_AND_ORGANIZATION_ASSIGNMENT ( #26, #121, ( #87 ) ) ;
#74 = DATE_AND_TIME ( #178, #194 ) ;
#75 = AXIS2_PLACEMENT_3D ( 'NONE', #170, #221, #15 ) ;
#76 = ADVANCED_FACE ( 'NONE', ( #55 ), #108, .F. ) ;
#77 = APPLICATION_PROTOCOL_DEFINITION ( 'international standard', 'config_control_design', 1994, #201 ) ;
#78 = APPROVAL ( #79, 'UNSPECIFIED' ) ;
#79 = APPROVAL_STATUS ( 'not_yet_approved' ) ;
#80 = CARTESIAN_POINT ( 'NONE',  ( 4.189777606611760026E-14, 2.850000000000028511, 12.00000000000000000 ) ) ;
#81 = AXIS2_PLACEMENT_3D ( 'NONE', #185, #130, #67 ) ;
#82 = VERTEX_POINT ( 'NONE', #23 ) ;
#83 = PERSON_AND_ORGANIZATION ( #234, #127 ) ;
#84 = CC_DESIGN_PERSON_AND_ORGANIZATION_ASSIGNMENT ( #174, #4, ( #134 ) ) ;
#85 = EDGE_LOOP ( 'NONE', ( #86 ) ) ;
#86 = ORIENTED_EDGE ( 'NONE', *, *, #70, .F. ) ;
#87 = PRODUCT_DEFINITION_FORMATION_WITH_SPECIFIED_SOURCE ( 'ANY', '', #134, .NOT_KNOWN. ) ;
#88 = ORIENTED_EDGE ( 'NONE', *, *, #181, .F. ) ;
#89 = DIRECTION ( 'NONE',  ( -4.275831445896958607E-31, -1.000000000000000000, -1.224646799147353207E-16 ) ) ;
#90 = FACE_OUTER_BOUND ( 'NONE', #160, .T. ) ;
#91 = AXIS2_PLACEMENT_3D ( 'NONE', #195, #153, #213 ) ;
#92 = FACE_OUTER_BOUND ( 'NONE', #28, .T. ) ;
#93 = CIRCLE ( 'NONE', #183, 2.000000000000000888 ) ;
#94 = MANIFOLD_SOLID_BREP ( 'Corps-Déplacer/Copier1[2]', #216 ) ;
#95 = CIRCLE ( 'NONE', #49, 1.600000000000000977 ) ;
#96 = FACE_OUTER_BOUND ( 'NONE', #217, .T. ) ;
#97 = APPROVAL_DATE_TIME ( #243, #189 ) ;
#98 = DIRECTION ( 'NONE',  ( -4.275831445896958607E-31, -1.000000000000000000, -1.224646799147353207E-16 ) ) ;
#99 = AXIS2_PLACEMENT_3D ( 'NONE', #203, #167, #150 ) ;
#100 =( LENGTH_UNIT ( ) NAMED_UNIT ( * ) SI_UNIT ( .MILLI., .METRE. ) );
#101 = COORDINATED_UNIVERSAL_TIME_OFFSET ( 1, 0, .AHEAD. ) ;
#102 = CALENDAR_DATE ( 2021, 2, 12 ) ;
#103 = EDGE_LOOP ( 'NONE', ( #218 ) ) ;
#104 = ORIENTED_EDGE ( 'NONE', *, *, #8, .F. ) ;
#105 = SECURITY_CLASSIFICATION ( '', '', #196 ) ;
#106 = CLOSED_SHELL ( 'NONE', ( #159, #48, #151, #122, #76 ) ) ;
#107 = CARTESIAN_POINT ( 'NONE',  ( 0.0000000000000000000, 0.0000000000000000000, 0.0000000000000000000 ) ) ;
#108 = PLANE ( 'NONE',  #81 ) ;
#109 = DIRECTION ( 'NONE',  ( -3.491481338843133355E-15, 1.224646799147353207E-16, -1.000000000000000000 ) ) ;
#110 = LOCAL_TIME ( 13, 57, 51.00000000000000000, #3 ) ;
#111 = FACE_OUTER_BOUND ( 'NONE', #139, .T. ) ;
#112 = LOCAL_TIME ( 13, 57, 51.00000000000000000, #101 ) ;
#113 = DIRECTION ( 'NONE',  ( 0.0000000000000000000, 1.000000000000000000, 0.0000000000000000000 ) ) ;
#114 = CALENDAR_DATE ( 2021, 2, 12 ) ;
#115 = CARTESIAN_POINT ( 'NONE',  ( 2.793185071074506684E-13, 1.599999999999991207, 80.00000000000000000 ) ) ;
#116 = APPROVAL_ROLE ( '' ) ;
#117 = EDGE_CURVE ( 'NONE', #225, #225, #93, .T. ) ;
#118 = APPROVAL_DATE_TIME ( #74, #78 ) ;
#119 = AXIS2_PLACEMENT_3D ( 'NONE', #126, #53, #89 ) ;
#120 = CIRCLE ( 'NONE', #198, 2.450000000000028599 ) ;
#121 = PERSON_AND_ORGANIZATION_ROLE ( 'design_supplier' ) ;
#122 = ADVANCED_FACE ( 'NONE', ( #92, #190 ), #173, .T. ) ;
#123 = EDGE_CURVE ( 'NONE', #154, #154, #228, .T. ) ;
#124 = APPROVAL_PERSON_ORGANIZATION ( #1, #65, #155 ) ;
#125 = APPROVAL_PERSON_ORGANIZATION ( #212, #78, #116 ) ;
#126 = CARTESIAN_POINT ( 'NONE',  ( -1.047578704244767111E-30, 3.674411467521593835E-32, -3.000384657911050376E-16 ) ) ;
#127 = ORGANIZATION ( 'UNSPECIFIED', 'UNSPECIFIED', '' ) ;
#128 = ADVANCED_FACE ( 'NONE', ( #90 ), #241, .T. ) ;
#129 = FACE_OUTER_BOUND ( 'NONE', #12, .T. ) ;
#130 = DIRECTION ( 'NONE',  ( -3.491481338843133355E-15, 1.224646799147353207E-16, -1.000000000000000000 ) ) ;
#131 = DIRECTION ( 'NONE',  ( 0.0000000000000000000, 1.000000000000000000, 0.0000000000000000000 ) ) ;
#132 = AXIS2_PLACEMENT_3D ( 'NONE', #204, #35, #188 ) ;
#133 = CARTESIAN_POINT ( 'NONE',  ( 2.793185071074506684E-13, -9.797174393178826052E-15, 80.00000000000000000 ) ) ;
#134 = PRODUCT ( '321796', '321796', '', ( #20 ) ) ;
#135 = CARTESIAN_POINT ( 'NONE',  ( 2.779219145719134403E-13, 1.999999999999991340, 79.60000000000000853 ) ) ;
#136 = PERSON_AND_ORGANIZATION ( #234, #127 ) ;
#137 = VERTEX_POINT ( 'NONE', #5 ) ;
#138 = COORDINATED_UNIVERSAL_TIME_OFFSET ( 1, 0, .AHEAD. ) ;
#139 = EDGE_LOOP ( 'NONE', ( #64 ) ) ;
#140 = EDGE_LOOP ( 'NONE', ( #9 ) ) ;
#141 = ORIENTED_EDGE ( 'NONE', *, *, #117, .F. ) ;
#142 = AXIS2_PLACEMENT_3D ( 'NONE', #21, #229, #227 ) ;
#143 = CC_DESIGN_APPROVAL ( #78, ( #42 ) ) ;
#144 = ORIENTED_EDGE ( 'NONE', *, *, #11, .T. ) ;
#145 = PRODUCT_RELATED_PRODUCT_CATEGORY ( 'detail', '', ( #134 ) ) ;
#146 = CYLINDRICAL_SURFACE ( 'NONE', #13, 1.999999999999996669 ) ;
#147 = FACE_BOUND ( 'NONE', #233, .T. ) ;
#148 = CARTESIAN_POINT ( 'NONE',  ( 2.779219145719134403E-13, -9.748188521212932624E-15, 79.60000000000000853 ) ) ;
#149 = DIRECTION ( 'NONE',  ( -3.491481338843133355E-15, 1.224646799147353207E-16, -1.000000000000000000 ) ) ;
#150 = DIRECTION ( 'NONE',  ( 0.0000000000000000000, 1.000000000000000000, 0.0000000000000000000 ) ) ;
#151 = ADVANCED_FACE ( 'NONE', ( #200, #111 ), #146, .T. ) ;
#152 = AXIS2_PLACEMENT_3D ( 'NONE', #72, #220, #98 ) ;
#153 = DIRECTION ( 'NONE',  ( -3.491481338843133355E-15, 1.224646799147353207E-16, -1.000000000000000000 ) ) ;
#154 = VERTEX_POINT ( 'NONE', #80 ) ;
#155 = APPROVAL_ROLE ( '' ) ;
#156 = LOCAL_TIME ( 13, 57, 51.00000000000000000, #169 ) ;
#157 =( NAMED_UNIT ( * ) PLANE_ANGLE_UNIT ( ) SI_UNIT ( $, .RADIAN. ) );
#158 = CALENDAR_DATE ( 2021, 2, 12 ) ;
#159 = ADVANCED_FACE ( 'NONE', ( #184 ), #52, .F. ) ;
#160 = EDGE_LOOP ( 'NONE', ( #66 ) ) ;
#161 = ORIENTED_EDGE ( 'NONE', *, *, #27, .F. ) ;
#162 = ADVANCED_FACE ( 'NONE', ( #54, #33 ), #163, .T. ) ;
#163 = CONICAL_SURFACE ( 'NONE', #119, 2.450000000000028599, 0.7853981633974496113 ) ;
#164 = CIRCLE ( 'NONE', #32, 2.850000000000029399 ) ;
#165 = CC_DESIGN_APPROVAL ( #189, ( #105 ) ) ;
#166 = EDGE_LOOP ( 'NONE', ( #88 ) ) ;
#167 = DIRECTION ( 'NONE',  ( -3.491481338843133355E-15, 1.224646799147353207E-16, -1.000000000000000000 ) ) ;
#168 = DIRECTION ( 'NONE',  ( -3.491481338843133355E-15, 1.224646799147353207E-16, -1.000000000000000000 ) ) ;
#169 = COORDINATED_UNIVERSAL_TIME_OFFSET ( 1, 0, .AHEAD. ) ;
#170 = CARTESIAN_POINT ( 'NONE',  ( 2.793185071074506684E-13, -9.797174393178826052E-15, 80.00000000000000000 ) ) ;
#171 = DIRECTION ( 'NONE',  ( -3.491481338843133355E-15, 1.224646799147353207E-16, -1.000000000000000000 ) ) ;
#172 = DIRECTION ( 'NONE',  ( -3.491481338843133355E-15, 1.224646799147353207E-16, -1.000000000000000000 ) ) ;
#173 = CONICAL_SURFACE ( 'NONE', #75, 1.600000000000000977, 0.7853981633974512766 ) ;
#174 = PERSON_AND_ORGANIZATION ( #234, #127 ) ;
#175 = AXIS2_PLACEMENT_3D ( 'NONE', #186, #171, #14 ) ;
#176 = VERTEX_POINT ( 'NONE', #115 ) ;
#177 = MANIFOLD_SOLID_BREP ( 'Corps-Déplacer/Copier1[1]', #106 ) ;
#178 = CALENDAR_DATE ( 2021, 2, 12 ) ;
#179 = DATE_AND_TIME ( #211, #112 ) ;
#180 = PERSON_AND_ORGANIZATION ( #234, #127 ) ;
#181 = EDGE_CURVE ( 'NONE', #226, #226, #24, .T. ) ;
#182 = EDGE_LOOP ( 'NONE', ( #238 ) ) ;
#183 = AXIS2_PLACEMENT_3D ( 'NONE', #148, #149, #131 ) ;
#184 = FACE_OUTER_BOUND ( 'NONE', #182, .T. ) ;
#185 = CARTESIAN_POINT ( 'NONE',  ( 2.793185071074506684E-13, 1.199807826129472128E-32, 80.00000000000000000 ) ) ;
#186 = CARTESIAN_POINT ( 'NONE',  ( 4.189777606611760026E-14, -1.469576158976823947E-15, 12.00000000000000000 ) ) ;
#187 = APPROVAL_PERSON_ORGANIZATION ( #45, #189, #22 ) ;
#188 = DIRECTION ( 'NONE',  ( -4.275831445896958607E-31, -1.000000000000000000, -1.224646799147353207E-16 ) ) ;
#189 = APPROVAL ( #63, 'UNSPECIFIED' ) ;
#190 = FACE_BOUND ( 'NONE', #51, .T. ) ;
#191 = CARTESIAN_POINT ( 'NONE',  ( 1.396592535537253342E-15, 2.850000000000029399, 0.3999999999999999667 ) ) ;
#192 = CC_DESIGN_PERSON_AND_ORGANIZATION_ASSIGNMENT ( #180, #61, ( #87 ) ) ;
#193 = DATE_AND_TIME ( #102, #110 ) ;
#194 = LOCAL_TIME ( 13, 57, 51.00000000000000000, #43 ) ;
#195 = CARTESIAN_POINT ( 'NONE',  ( -5.237893521223835556E-31, 1.837205733760796918E-32, -1.500192328955525188E-16 ) ) ;
#196 = SECURITY_CLASSIFICATION_LEVEL ( 'unclassified' ) ;
#197 = EDGE_LOOP ( 'NONE', ( #46 ) ) ;
#198 = AXIS2_PLACEMENT_3D ( 'NONE', #16, #172, #31 ) ;
#199 = CARTESIAN_POINT ( 'NONE',  ( 4.189777606611760026E-14, -1.469576158976823947E-15, 12.00000000000000000 ) ) ;
#200 = FACE_OUTER_BOUND ( 'NONE', #166, .T. ) ;
#201 = APPLICATION_CONTEXT ( 'configuration controlled 3d designs of mechanical parts and assemblies' ) ;
#202 = ADVANCED_FACE ( 'NONE', ( #224, #69 ), #34, .T. ) ;
#203 = CARTESIAN_POINT ( 'NONE',  ( 4.703808567778949015E-14, -1.649873949560065491E-15, 13.47224318643360697 ) ) ;
#204 = CARTESIAN_POINT ( 'NONE',  ( 4.189777606611760026E-14, 2.137157690293167892E-32, 12.00000000000000000 ) ) ;
#205 = UNCERTAINTY_MEASURE_WITH_UNIT (LENGTH_MEASURE( 1.000000000000000082E-05 ), #100, 'distance_accuracy_value', 'NONE');
#206 = DIRECTION ( 'NONE',  ( 0.0000000000000000000, 1.000000000000000000, 0.0000000000000000000 ) ) ;
#207 = AXIS2_PLACEMENT_3D ( 'NONE', #199, #18, #239 ) ;
#208 = DIRECTION ( 'NONE',  ( -3.491481338843133355E-15, 1.224646799147353207E-16, -1.000000000000000000 ) ) ;
#209 = SHAPE_DEFINITION_REPRESENTATION ( #62, #219 ) ;
#210 = APPROVAL_STATUS ( 'not_yet_approved' ) ;
#211 = CALENDAR_DATE ( 2021, 2, 12 ) ;
#212 = PERSON_AND_ORGANIZATION ( #234, #127 ) ;
#213 = DIRECTION ( 'NONE',  ( 4.275831445896958607E-31, 1.000000000000000000, 1.224646799147353207E-16 ) ) ;
#214 = CC_DESIGN_APPROVAL ( #65, ( #87 ) ) ;
#215 = DATE_AND_TIME ( #158, #36 ) ;
#216 = CLOSED_SHELL ( 'NONE', ( #202, #128, #237, #162 ) ) ;
#217 = EDGE_LOOP ( 'NONE', ( #104 ) ) ;
#218 = ORIENTED_EDGE ( 'NONE', *, *, #123, .T. ) ;
#219 = ADVANCED_BREP_SHAPE_REPRESENTATION ( '321796', ( #177, #94, #142 ), #57 ) ;
#220 = DIRECTION ( 'NONE',  ( 3.491481338843133355E-15, -1.224646799147353207E-16, 1.000000000000000000 ) ) ;
#221 = DIRECTION ( 'NONE',  ( -3.491481338843133355E-15, 1.224646799147353207E-16, -1.000000000000000000 ) ) ;
#222 = DIRECTION ( 'NONE',  ( 4.275831445896958607E-31, 1.000000000000000000, 1.224646799147353207E-16 ) ) ;
#223 = DIRECTION ( 'NONE',  ( 4.054589356604665527E-31, 1.000000000000000000, 1.141265444721571925E-16 ) ) ;
#224 = FACE_OUTER_BOUND ( 'NONE', #103, .T. ) ;
#225 = VERTEX_POINT ( 'NONE', #135 ) ;
#226 = VERTEX_POINT ( 'NONE', #6 ) ;
#227 = DIRECTION ( 'NONE',  ( 1.000000000000000000, 0.0000000000000000000, 0.0000000000000000000 ) ) ;
#228 = CIRCLE ( 'NONE', #236, 2.850000000000029843 ) ;
#229 = DIRECTION ( 'NONE',  ( 0.0000000000000000000, 0.0000000000000000000, 1.000000000000000000 ) ) ;
#230 = CC_DESIGN_DATE_AND_TIME_ASSIGNMENT ( #215, #231, ( #105 ) ) ;
#231 = DATE_TIME_ROLE ( 'classification_date' ) ;
#232 = AXIS2_PLACEMENT_3D ( 'NONE', #56, #208, #68 ) ;
#233 = EDGE_LOOP ( 'NONE', ( #29 ) ) ;
#234 = PERSON ( 'UNSPECIFIED', 'UNSPECIFIED', 'UNSPECIFIED', ('UNSPECIFIED'), ('UNSPECIFIED'), ('UNSPECIFIED') ) ;
#235 = CC_DESIGN_DATE_AND_TIME_ASSIGNMENT ( #193, #41, ( #42 ) ) ;
#236 = AXIS2_PLACEMENT_3D ( 'NONE', #38, #242, #206 ) ;
#237 = ADVANCED_FACE ( 'NONE', ( #129 ), #240, .T. ) ;
#238 = ORIENTED_EDGE ( 'NONE', *, *, #8, .T. ) ;
#239 = DIRECTION ( 'NONE',  ( 0.0000000000000000000, 1.000000000000000000, 0.0000000000000000000 ) ) ;
#240 = PLANE ( 'NONE',  #91 ) ;
#241 = PLANE ( 'NONE',  #152 ) ;
#242 = DIRECTION ( 'NONE',  ( -3.491481338843133355E-15, 1.224646799147353207E-16, -1.000000000000000000 ) ) ;
#243 = DATE_AND_TIME ( #114, #156 ) ;
ENDSEC;
END-ISO-10303-21;
