ISO-10303-21;
HEADER;
FILE_DESCRIPTION (( 'STEP AP203' ),
    '1' );
FILE_NAME ('321791.step',
    '2021-12-02T12:57:48',
    ( '' ),
    ( '' ),
    'SwSTEP 2.0',
    'SolidWorks 2019',
    '' );
FILE_SCHEMA (( 'CONFIG_CONTROL_DESIGN' ));
ENDSEC;

DATA;
#1 = CARTESIAN_POINT ( 'NONE',  ( 2.793185071074506684E-13, -9.797174393178826052E-15, 80.00000000000000000 ) ) ;
#2 = CC_DESIGN_PERSON_AND_ORGANIZATION_ASSIGNMENT ( #64, #103, ( #85 ) ) ;
#3 = DIRECTION ( 'NONE',  ( 0.0000000000000000000, 1.000000000000000000, 0.0000000000000000000 ) ) ;
#4 = AXIS2_PLACEMENT_3D ( 'NONE', #185, #20, #159 ) ;
#5 = ADVANCED_FACE ( 'NONE', ( #169 ), #116, .T. ) ;
#6 = DIRECTION ( 'NONE',  ( -4.275831445896958607E-31, -1.000000000000000000, -1.224646799147353207E-16 ) ) ;
#7 = DIRECTION ( 'NONE',  ( -3.491481338843133355E-15, 1.224646799147353207E-16, -1.000000000000000000 ) ) ;
#8 = AXIS2_PLACEMENT_3D ( 'NONE', #134, #191, #3 ) ;
#9 = VERTEX_POINT ( 'NONE', #83 ) ;
#10 = DIRECTION ( 'NONE',  ( -3.491481338843133355E-15, 1.224646799147353207E-16, -1.000000000000000000 ) ) ;
#11 = CIRCLE ( 'NONE', #36, 2.825000000000029932 ) ;
#12 = DATE_TIME_ROLE ( 'classification_date' ) ;
#13 = PERSON_AND_ORGANIZATION ( #124, #229 ) ;
#14 = COORDINATED_UNIVERSAL_TIME_OFFSET ( 1, 0, .AHEAD. ) ;
#15 = APPROVAL ( #218, 'UNSPECIFIED' ) ;
#16 = LOCAL_TIME ( 13, 57, 48.00000000000000000, #198 ) ;
#17 = EDGE_CURVE ( 'NONE', #61, #61, #19, .T. ) ;
#18 = CLOSED_SHELL ( 'NONE', ( #178, #86, #31, #45, #48 ) ) ;
#19 = CIRCLE ( 'NONE', #8, 1.600000000000000977 ) ;
#20 = DIRECTION ( 'NONE',  ( -3.491481338843133355E-15, 1.224646799147353207E-16, -1.000000000000000000 ) ) ;
#21 = FACE_OUTER_BOUND ( 'NONE', #209, .T. ) ;
#22 = CONICAL_SURFACE ( 'NONE', #228, 2.825000000000029932, 0.5235987755983003700 ) ;
#23 = EDGE_CURVE ( 'NONE', #9, #9, #11, .T. ) ;
#24 = FACE_OUTER_BOUND ( 'NONE', #71, .T. ) ;
#25 = CARTESIAN_POINT ( 'NONE',  ( 0.0000000000000000000, 0.0000000000000000000, 0.0000000000000000000 ) ) ;
#26 = CARTESIAN_POINT ( 'NONE',  ( 2.779219145719134403E-13, 1.999999999999991340, 79.60000000000000853 ) ) ;
#27 = APPLICATION_PROTOCOL_DEFINITION ( 'international standard', 'config_control_design', 1994, #127 ) ;
#28 = FACE_OUTER_BOUND ( 'NONE', #109, .T. ) ;
#29 = EDGE_CURVE ( 'NONE', #30, #30, #52, .T. ) ;
#30 = VERTEX_POINT ( 'NONE', #192 ) ;
#31 = ADVANCED_FACE ( 'NONE', ( #156, #77 ), #40, .T. ) ;
#32 = PERSON_AND_ORGANIZATION_ROLE ( 'classification_officer' ) ;
#33 = SECURITY_CLASSIFICATION ( '', '', #195 ) ;
#34 = CC_DESIGN_PERSON_AND_ORGANIZATION_ASSIGNMENT ( #105, #32, ( #33 ) ) ;
#35 = ORIENTED_EDGE ( 'NONE', *, *, #23, .T. ) ;
#36 = AXIS2_PLACEMENT_3D ( 'NONE', #137, #39, #43 ) ;
#37 = ORIENTED_EDGE ( 'NONE', *, *, #29, .F. ) ;
#38 = CARTESIAN_POINT ( 'NONE',  ( 4.189777606611760026E-14, 2.118410693009894535E-32, 12.00000000000000000 ) ) ;
#39 = DIRECTION ( 'NONE',  ( -3.491481338843133355E-15, 1.224646799147353207E-16, -1.000000000000000000 ) ) ;
#40 = CYLINDRICAL_SURFACE ( 'NONE', #240, 1.999999999999996669 ) ;
#41 = APPROVAL ( #90, 'UNSPECIFIED' ) ;
#42 = ORIENTED_EDGE ( 'NONE', *, *, #226, .F. ) ;
#43 = DIRECTION ( 'NONE',  ( 0.0000000000000000000, 1.000000000000000000, 0.0000000000000000000 ) ) ;
#44 = DIRECTION ( 'NONE',  ( 3.491481338843133355E-15, -1.224646799147353207E-16, 1.000000000000000000 ) ) ;
#45 = ADVANCED_FACE ( 'NONE', ( #21, #172 ), #70, .T. ) ;
#46 = LOCAL_TIME ( 13, 57, 48.00000000000000000, #146 ) ;
#47 = DIRECTION ( 'NONE',  ( -3.491481338843133355E-15, 1.224646799147353207E-16, -1.000000000000000000 ) ) ;
#48 = ADVANCED_FACE ( 'NONE', ( #78 ), #224, .F. ) ;
#49 = CC_DESIGN_DATE_AND_TIME_ASSIGNMENT ( #180, #107, ( #135 ) ) ;
#50 = PERSON_AND_ORGANIZATION ( #124, #229 ) ;
#51 = LOCAL_TIME ( 13, 57, 48.00000000000000000, #204 ) ;
#52 = CIRCLE ( 'NONE', #96, 2.825000000000029932 ) ;
#53 = CALENDAR_DATE ( 2021, 2, 12 ) ;
#54 = APPROVAL_ROLE ( '' ) ;
#55 = DIRECTION ( 'NONE',  ( 4.275831445896958607E-31, 1.000000000000000000, 1.224646799147353207E-16 ) ) ;
#56 = EDGE_LOOP ( 'NONE', ( #206 ) ) ;
#57 = CARTESIAN_POINT ( 'NONE',  ( -1.036889125630024579E-30, 3.636917472955047121E-32, -2.969768487932365997E-16 ) ) ;
#58 = DIRECTION ( 'NONE',  ( -3.491481338843133355E-15, 1.224646799147353207E-16, -1.000000000000000000 ) ) ;
#59 =( GEOMETRIC_REPRESENTATION_CONTEXT ( 3 ) GLOBAL_UNCERTAINTY_ASSIGNED_CONTEXT ( ( #165 ) ) GLOBAL_UNIT_ASSIGNED_CONTEXT ( ( #140, #233, #184 ) ) REPRESENTATION_CONTEXT ( 'NONE', 'WORKASPACE' ) );
#60 = DIRECTION ( 'NONE',  ( 0.0000000000000000000, 1.000000000000000000, 0.0000000000000000000 ) ) ;
#61 = VERTEX_POINT ( 'NONE', #194 ) ;
#62 = MECHANICAL_CONTEXT ( 'NONE', #127, 'mechanical' ) ;
#63 = CARTESIAN_POINT ( 'NONE',  ( -1.036889125630024579E-30, 3.636917472955047121E-32, -2.969768487932365997E-16 ) ) ;
#64 = PERSON_AND_ORGANIZATION ( #124, #229 ) ;
#65 = DATE_AND_TIME ( #238, #143 ) ;
#66 = CONICAL_SURFACE ( 'NONE', #171, 2.425000000000028244, 0.7853981633974502774 ) ;
#67 = ORIENTED_EDGE ( 'NONE', *, *, #17, .F. ) ;
#68 = EDGE_CURVE ( 'NONE', #102, #102, #234, .T. ) ;
#69 = APPROVAL_DATE_TIME ( #106, #41 ) ;
#70 = CONICAL_SURFACE ( 'NONE', #187, 1.600000000000000977, 0.7853981633974512766 ) ;
#71 = EDGE_LOOP ( 'NONE', ( #91 ) ) ;
#72 = EDGE_CURVE ( 'NONE', #101, #101, #201, .T. ) ;
#73 = DIRECTION ( 'NONE',  ( -3.491481338843133355E-15, 1.224646799147353207E-16, -1.000000000000000000 ) ) ;
#74 = VERTEX_POINT ( 'NONE', #136 ) ;
#75 = AXIS2_PLACEMENT_3D ( 'NONE', #38, #173, #6 ) ;
#76 = ADVANCED_FACE ( 'NONE', ( #24 ), #98, .T. ) ;
#77 = FACE_OUTER_BOUND ( 'NONE', #203, .T. ) ;
#78 = FACE_OUTER_BOUND ( 'NONE', #236, .T. ) ;
#79 = FACE_BOUND ( 'NONE', #202, .T. ) ;
#80 = FACE_OUTER_BOUND ( 'NONE', #132, .T. ) ;
#81 = APPROVAL_PERSON_ORGANIZATION ( #145, #15, #54 ) ;
#82 = CC_DESIGN_PERSON_AND_ORGANIZATION_ASSIGNMENT ( #50, #89, ( #122 ) ) ;
#83 = CARTESIAN_POINT ( 'NONE',  ( 4.189777606611760026E-14, 2.825000000000028599, 12.00000000000000000 ) ) ;
#84 = PLANE ( 'NONE',  #219 ) ;
#85 = PRODUCT ( '321791', '321791', '', ( #62 ) ) ;
#86 = ADVANCED_FACE ( 'NONE', ( #79, #99 ), #22, .T. ) ;
#87 = APPROVAL_ROLE ( '' ) ;
#88 = APPROVAL_STATUS ( 'not_yet_approved' ) ;
#89 = PERSON_AND_ORGANIZATION_ROLE ( 'creator' ) ;
#90 = APPROVAL_STATUS ( 'not_yet_approved' ) ;
#91 = ORIENTED_EDGE ( 'NONE', *, *, #220, .F. ) ;
#92 = ADVANCED_FACE ( 'NONE', ( #80, #223 ), #139, .T. ) ;
#93 = CC_DESIGN_PERSON_AND_ORGANIZATION_ASSIGNMENT ( #200, #190, ( #135 ) ) ;
#94 = CARTESIAN_POINT ( 'NONE',  ( 1.396592535537252159E-15, -4.898587196589408145E-17, 0.3999999999999996336 ) ) ;
#95 = DIRECTION ( 'NONE',  ( 4.275831445896958607E-31, 1.000000000000000000, 1.224646799147353207E-16 ) ) ;
#96 = AXIS2_PLACEMENT_3D ( 'NONE', #94, #58, #189 ) ;
#97 = ORIENTED_EDGE ( 'NONE', *, *, #68, .F. ) ;
#98 = PLANE ( 'NONE',  #75 ) ;
#99 = FACE_OUTER_BOUND ( 'NONE', #221, .T. ) ;
#100 = CARTESIAN_POINT ( 'NONE',  ( 0.0000000000000000000, 2.425000000000028244, 0.0000000000000000000 ) ) ;
#101 = VERTEX_POINT ( 'NONE', #100 ) ;
#102 = VERTEX_POINT ( 'NONE', #26 ) ;
#103 = PERSON_AND_ORGANIZATION_ROLE ( 'design_owner' ) ;
#104 = AXIS2_PLACEMENT_3D ( 'NONE', #150, #7, #225 ) ;
#105 = PERSON_AND_ORGANIZATION ( #124, #229 ) ;
#106 = DATE_AND_TIME ( #53, #46 ) ;
#107 = DATE_TIME_ROLE ( 'creation_date' ) ;
#108 = COORDINATED_UNIVERSAL_TIME_OFFSET ( 1, 0, .AHEAD. ) ;
#109 = EDGE_LOOP ( 'NONE', ( #35 ) ) ;
#110 = APPROVAL_PERSON_ORGANIZATION ( #239, #41, #87 ) ;
#111 = CARTESIAN_POINT ( 'NONE',  ( 4.189777606611760026E-14, -1.469576158976823947E-15, 12.00000000000000000 ) ) ;
#112 = CARTESIAN_POINT ( 'NONE',  ( -5.184445628150122895E-31, 1.818458736477523561E-32, -1.484884243966182998E-16 ) ) ;
#113 = AXIS2_PLACEMENT_3D ( 'NONE', #188, #230, #60 ) ;
#114 = DIRECTION ( 'NONE',  ( -3.491481338843133355E-15, 1.224646799147353207E-16, -1.000000000000000000 ) ) ;
#115 = DIRECTION ( 'NONE',  ( -3.491481338843133355E-15, 1.224646799147353207E-16, -1.000000000000000000 ) ) ;
#116 = PLANE ( 'NONE',  #148 ) ;
#117 = PRODUCT_DEFINITION_SHAPE ( 'NONE', 'NONE',  #135 ) ;
#118 = DIRECTION ( 'NONE',  ( 0.0000000000000000000, 1.000000000000000000, 0.0000000000000000000 ) ) ;
#119 = CLOSED_SHELL ( 'NONE', ( #92, #76, #5, #214 ) ) ;
#120 = CARTESIAN_POINT ( 'NONE',  ( 0.0000000000000000000, 0.0000000000000000000, 0.0000000000000000000 ) ) ;
#121 = DIRECTION ( 'NONE',  ( 3.491481338843133355E-15, -1.224646799147353207E-16, 1.000000000000000000 ) ) ;
#122 = PRODUCT_DEFINITION_FORMATION_WITH_SPECIFIED_SOURCE ( 'ANY', '', #85, .NOT_KNOWN. ) ;
#123 = CC_DESIGN_APPROVAL ( #149, ( #135 ) ) ;
#124 = PERSON ( 'UNSPECIFIED', 'UNSPECIFIED', 'UNSPECIFIED', ('UNSPECIFIED'), ('UNSPECIFIED'), ('UNSPECIFIED') ) ;
#125 = ORIENTED_EDGE ( 'NONE', *, *, #72, .T. ) ;
#126 = APPROVAL_DATE_TIME ( #65, #149 ) ;
#127 = APPLICATION_CONTEXT ( 'configuration controlled 3d designs of mechanical parts and assemblies' ) ;
#128 = CIRCLE ( 'NONE', #207, 2.825000000000029932 ) ;
#129 = APPROVAL_DATE_TIME ( #166, #15 ) ;
#130 = EDGE_LOOP ( 'NONE', ( #37 ) ) ;
#131 = DIRECTION ( 'NONE',  ( -3.491481338843133355E-15, 1.224646799147353207E-16, -1.000000000000000000 ) ) ;
#132 = EDGE_LOOP ( 'NONE', ( #153 ) ) ;
#133 = ADVANCED_BREP_SHAPE_REPRESENTATION ( '321791', ( #164, #241, #197 ), #59 ) ;
#134 = CARTESIAN_POINT ( 'NONE',  ( 2.793185071074506684E-13, -9.797174393178826052E-15, 80.00000000000000000 ) ) ;
#135 = PRODUCT_DEFINITION ( 'UNKNOWN', '', #122, #181 ) ;
#136 = CARTESIAN_POINT ( 'NONE',  ( 4.688690010097561493E-14, 1.999999999999990452, 13.42894191624438349 ) ) ;
#137 = CARTESIAN_POINT ( 'NONE',  ( 4.189777606611760026E-14, -1.469576158976823947E-15, 12.00000000000000000 ) ) ;
#138 = CC_DESIGN_DATE_AND_TIME_ASSIGNMENT ( #217, #12, ( #33 ) ) ;
#139 = CYLINDRICAL_SURFACE ( 'NONE', #4, 2.825000000000029932 ) ;
#140 =( LENGTH_UNIT ( ) NAMED_UNIT ( * ) SI_UNIT ( .MILLI., .METRE. ) );
#141 = CARTESIAN_POINT ( 'NONE',  ( 4.189777606611760026E-14, 2.118410693009894535E-32, 12.00000000000000000 ) ) ;
#142 = FACE_BOUND ( 'NONE', #205, .T. ) ;
#143 = LOCAL_TIME ( 13, 57, 48.00000000000000000, #108 ) ;
#144 = CC_DESIGN_APPROVAL ( #41, ( #33 ) ) ;
#145 = PERSON_AND_ORGANIZATION ( #124, #229 ) ;
#146 = COORDINATED_UNIVERSAL_TIME_OFFSET ( 1, 0, .AHEAD. ) ;
#147 = SHAPE_DEFINITION_REPRESENTATION ( #117, #133 ) ;
#148 = AXIS2_PLACEMENT_3D ( 'NONE', #112, #154, #55 ) ;
#149 = APPROVAL ( #88, 'UNSPECIFIED' ) ;
#150 = CARTESIAN_POINT ( 'NONE',  ( 2.793185071074506684E-13, 1.199807826129472128E-32, 80.00000000000000000 ) ) ;
#151 = CC_DESIGN_APPROVAL ( #15, ( #122 ) ) ;
#152 = DIRECTION ( 'NONE',  ( 0.0000000000000000000, 1.000000000000000000, 0.0000000000000000000 ) ) ;
#153 = ORIENTED_EDGE ( 'NONE', *, *, #220, .T. ) ;
#154 = DIRECTION ( 'NONE',  ( -3.491481338843133355E-15, 1.224646799147353207E-16, -1.000000000000000000 ) ) ;
#155 = CIRCLE ( 'NONE', #208, 1.999999999999992228 ) ;
#156 = FACE_OUTER_BOUND ( 'NONE', #186, .T. ) ;
#157 = DIRECTION ( 'NONE',  ( 0.0000000000000000000, 1.000000000000000000, 0.0000000000000000000 ) ) ;
#158 = DIRECTION ( 'NONE',  ( 1.000000000000000000, 0.0000000000000000000, 0.0000000000000000000 ) ) ;
#159 = DIRECTION ( 'NONE',  ( 4.275831445896958607E-31, 1.000000000000000000, 1.224646799147353207E-16 ) ) ;
#160 = AXIS2_PLACEMENT_3D ( 'NONE', #57, #73, #95 ) ;
#161 = DIRECTION ( 'NONE',  ( 0.0000000000000000000, 0.0000000000000000000, 1.000000000000000000 ) ) ;
#162 = CALENDAR_DATE ( 2021, 2, 12 ) ;
#163 = APPROVAL_ROLE ( '' ) ;
#164 = MANIFOLD_SOLID_BREP ( 'Corps-Déplacer/Copier1[1]', #18 ) ;
#165 = UNCERTAINTY_MEASURE_WITH_UNIT (LENGTH_MEASURE( 1.000000000000000082E-05 ), #140, 'distance_accuracy_value', 'NONE');
#166 = DATE_AND_TIME ( #182, #16 ) ;
#167 = ORIENTED_EDGE ( 'NONE', *, *, #68, .T. ) ;
#168 = ORIENTED_EDGE ( 'NONE', *, *, #23, .F. ) ;
#169 = FACE_OUTER_BOUND ( 'NONE', #183, .T. ) ;
#170 = EDGE_LOOP ( 'NONE', ( #222 ) ) ;
#171 = AXIS2_PLACEMENT_3D ( 'NONE', #63, #44, #212 ) ;
#172 = FACE_BOUND ( 'NONE', #56, .T. ) ;
#173 = DIRECTION ( 'NONE',  ( 3.491481338843133355E-15, -1.224646799147353207E-16, 1.000000000000000000 ) ) ;
#174 = DIRECTION ( 'NONE',  ( 0.0000000000000000000, 1.000000000000000000, 0.0000000000000000000 ) ) ;
#175 = CC_DESIGN_SECURITY_CLASSIFICATION ( #33, ( #122 ) ) ;
#176 = VERTEX_POINT ( 'NONE', #242 ) ;
#177 = FACE_OUTER_BOUND ( 'NONE', #170, .T. ) ;
#178 = ADVANCED_FACE ( 'NONE', ( #28 ), #84, .F. ) ;
#179 = APPLICATION_PROTOCOL_DEFINITION ( 'international standard', 'config_control_design', 1994, #215 ) ;
#180 = DATE_AND_TIME ( #235, #51 ) ;
#181 = DESIGN_CONTEXT ( 'detailed design', #215, 'design' ) ;
#182 = CALENDAR_DATE ( 2021, 2, 12 ) ;
#183 = EDGE_LOOP ( 'NONE', ( #125 ) ) ;
#184 =( NAMED_UNIT ( * ) SI_UNIT ( $, .STERADIAN. ) SOLID_ANGLE_UNIT ( ) );
#185 = CARTESIAN_POINT ( 'NONE',  ( 0.0000000000000000000, 0.0000000000000000000, 0.0000000000000000000 ) ) ;
#186 = EDGE_LOOP ( 'NONE', ( #42 ) ) ;
#187 = AXIS2_PLACEMENT_3D ( 'NONE', #1, #131, #152 ) ;
#188 = CARTESIAN_POINT ( 'NONE',  ( 2.779219145719134403E-13, -9.748188521212932624E-15, 79.60000000000000853 ) ) ;
#189 = DIRECTION ( 'NONE',  ( 4.090470678344528762E-31, 1.000000000000000000, 1.151365138922647483E-16 ) ) ;
#190 = PERSON_AND_ORGANIZATION_ROLE ( 'creator' ) ;
#191 = DIRECTION ( 'NONE',  ( -3.491481338843133355E-15, 1.224646799147353207E-16, -1.000000000000000000 ) ) ;
#192 = CARTESIAN_POINT ( 'NONE',  ( 1.396592535537253342E-15, 2.825000000000029932, 0.3999999999999999667 ) ) ;
#193 = PRODUCT_RELATED_PRODUCT_CATEGORY ( 'detail', '', ( #85 ) ) ;
#194 = CARTESIAN_POINT ( 'NONE',  ( 2.793185071074506684E-13, 1.599999999999991207, 80.00000000000000000 ) ) ;
#195 = SECURITY_CLASSIFICATION_LEVEL ( 'unclassified' ) ;
#196 = APPROVAL_PERSON_ORGANIZATION ( #13, #149, #163 ) ;
#197 = AXIS2_PLACEMENT_3D ( 'NONE', #120, #161, #158 ) ;
#198 = COORDINATED_UNIVERSAL_TIME_OFFSET ( 1, 0, .AHEAD. ) ;
#199 = PERSON_AND_ORGANIZATION_ROLE ( 'design_supplier' ) ;
#200 = PERSON_AND_ORGANIZATION ( #124, #229 ) ;
#201 = CIRCLE ( 'NONE', #160, 2.425000000000028244 ) ;
#202 = EDGE_LOOP ( 'NONE', ( #227 ) ) ;
#203 = EDGE_LOOP ( 'NONE', ( #167 ) ) ;
#204 = COORDINATED_UNIVERSAL_TIME_OFFSET ( 1, 0, .AHEAD. ) ;
#205 = EDGE_LOOP ( 'NONE', ( #243 ) ) ;
#206 = ORIENTED_EDGE ( 'NONE', *, *, #17, .T. ) ;
#207 = AXIS2_PLACEMENT_3D ( 'NONE', #213, #10, #118 ) ;
#208 = AXIS2_PLACEMENT_3D ( 'NONE', #231, #47, #157 ) ;
#209 = EDGE_LOOP ( 'NONE', ( #97 ) ) ;
#210 = CC_DESIGN_PERSON_AND_ORGANIZATION_ASSIGNMENT ( #237, #199, ( #122 ) ) ;
#211 = DIRECTION ( 'NONE',  ( 4.275831445896958607E-31, 1.000000000000000000, 1.224646799147353207E-16 ) ) ;
#212 = DIRECTION ( 'NONE',  ( -4.275831445896958607E-31, -1.000000000000000000, -1.224646799147353207E-16 ) ) ;
#213 = CARTESIAN_POINT ( 'NONE',  ( 4.189777606611760026E-14, -1.469576158976823947E-15, 12.00000000000000000 ) ) ;
#214 = ADVANCED_FACE ( 'NONE', ( #177, #142 ), #66, .T. ) ;
#215 = APPLICATION_CONTEXT ( 'configuration controlled 3d designs of mechanical parts and assemblies' ) ;
#216 = LOCAL_TIME ( 13, 57, 48.00000000000000000, #14 ) ;
#217 = DATE_AND_TIME ( #162, #216 ) ;
#218 = APPROVAL_STATUS ( 'not_yet_approved' ) ;
#219 = AXIS2_PLACEMENT_3D ( 'NONE', #141, #121, #232 ) ;
#220 = EDGE_CURVE ( 'NONE', #176, #176, #128, .T. ) ;
#221 = EDGE_LOOP ( 'NONE', ( #168 ) ) ;
#222 = ORIENTED_EDGE ( 'NONE', *, *, #29, .T. ) ;
#223 = FACE_OUTER_BOUND ( 'NONE', #130, .T. ) ;
#224 = PLANE ( 'NONE',  #104 ) ;
#225 = DIRECTION ( 'NONE',  ( 4.275831445896958607E-31, 1.000000000000000000, 1.224646799147353207E-16 ) ) ;
#226 = EDGE_CURVE ( 'NONE', #74, #74, #155, .T. ) ;
#227 = ORIENTED_EDGE ( 'NONE', *, *, #226, .T. ) ;
#228 = AXIS2_PLACEMENT_3D ( 'NONE', #111, #115, #174 ) ;
#229 = ORGANIZATION ( 'UNSPECIFIED', 'UNSPECIFIED', '' ) ;
#230 = DIRECTION ( 'NONE',  ( -3.491481338843133355E-15, 1.224646799147353207E-16, -1.000000000000000000 ) ) ;
#231 = CARTESIAN_POINT ( 'NONE',  ( 4.688690010097561493E-14, -1.644571073366440862E-15, 13.42894191624438349 ) ) ;
#232 = DIRECTION ( 'NONE',  ( -4.275831445896958607E-31, -1.000000000000000000, -1.224646799147353207E-16 ) ) ;
#233 =( NAMED_UNIT ( * ) PLANE_ANGLE_UNIT ( ) SI_UNIT ( $, .RADIAN. ) );
#234 = CIRCLE ( 'NONE', #113, 2.000000000000000888 ) ;
#235 = CALENDAR_DATE ( 2021, 2, 12 ) ;
#236 = EDGE_LOOP ( 'NONE', ( #67 ) ) ;
#237 = PERSON_AND_ORGANIZATION ( #124, #229 ) ;
#238 = CALENDAR_DATE ( 2021, 2, 12 ) ;
#239 = PERSON_AND_ORGANIZATION ( #124, #229 ) ;
#240 = AXIS2_PLACEMENT_3D ( 'NONE', #25, #114, #211 ) ;
#241 = MANIFOLD_SOLID_BREP ( 'Corps-Déplacer/Copier1[2]', #119 ) ;
#242 = CARTESIAN_POINT ( 'NONE',  ( 4.189777606611760026E-14, 2.825000000000028599, 12.00000000000000000 ) ) ;
#243 = ORIENTED_EDGE ( 'NONE', *, *, #72, .F. ) ;
ENDSEC;
END-ISO-10303-21;
