ISO-10303-21;
HEADER;
FILE_DESCRIPTION (( 'STEP AP203' ),
    '1' );
FILE_NAME ('321786.step',
    '2021-12-02T12:57:44',
    ( '' ),
    ( '' ),
    'SwSTEP 2.0',
    'SolidWorks 2019',
    '' );
FILE_SCHEMA (( 'CONFIG_CONTROL_DESIGN' ));
ENDSEC;

DATA;
#1 = CIRCLE ( 'NONE', #172, 2.800000000000030020 ) ;
#2 = EDGE_LOOP ( 'NONE', ( #224 ) ) ;
#3 = FACE_OUTER_BOUND ( 'NONE', #132, .T. ) ;
#4 = CC_DESIGN_DATE_AND_TIME_ASSIGNMENT ( #86, #145, ( #236 ) ) ;
#5 = CIRCLE ( 'NONE', #41, 2.400000000000028333 ) ;
#6 = APPROVAL_PERSON_ORGANIZATION ( #50, #70, #188 ) ;
#7 = DIRECTION ( 'NONE',  ( -3.491481338843133355E-15, 1.224646799147353207E-16, -1.000000000000000000 ) ) ;
#8 = DIRECTION ( 'NONE',  ( -3.491481338843133355E-15, 1.224646799147353207E-16, -1.000000000000000000 ) ) ;
#9 = CARTESIAN_POINT ( 'NONE',  ( 2.793185071074506684E-13, 1.599999999999991207, 80.00000000000000000 ) ) ;
#10 = PERSON_AND_ORGANIZATION_ROLE ( 'design_supplier' ) ;
#11 = PERSON_AND_ORGANIZATION_ROLE ( 'design_owner' ) ;
#12 = PERSON_AND_ORGANIZATION_ROLE ( 'creator' ) ;
#13 = EDGE_CURVE ( 'NONE', #109, #109, #1, .T. ) ;
#14 = CARTESIAN_POINT ( 'NONE',  ( 4.189777606611760026E-14, 2.800000000000028688, 12.00000000000000000 ) ) ;
#15 = APPROVAL_PERSON_ORGANIZATION ( #204, #37, #198 ) ;
#16 = PERSON_AND_ORGANIZATION ( #225, #63 ) ;
#17 = AXIS2_PLACEMENT_3D ( 'NONE', #116, #73, #194 ) ;
#18 = EDGE_LOOP ( 'NONE', ( #119 ) ) ;
#19 = ORIENTED_EDGE ( 'NONE', *, *, #222, .F. ) ;
#20 = EDGE_LOOP ( 'NONE', ( #19 ) ) ;
#21 = CARTESIAN_POINT ( 'NONE',  ( 0.0000000000000000000, 0.0000000000000000000, 0.0000000000000000000 ) ) ;
#22 = PRODUCT_DEFINITION ( 'UNKNOWN', '', #36, #106 ) ;
#23 = EDGE_LOOP ( 'NONE', ( #55 ) ) ;
#24 = DIRECTION ( 'NONE',  ( 4.275831445896958607E-31, 1.000000000000000000, 1.224646799147353207E-16 ) ) ;
#25 = CC_DESIGN_APPROVAL ( #37, ( #22 ) ) ;
#26 = CARTESIAN_POINT ( 'NONE',  ( -5.130997735076411109E-31, 1.799711739194250477E-32, -1.469576158976841302E-16 ) ) ;
#27 = ADVANCED_FACE ( 'NONE', ( #208 ), #154, .F. ) ;
#28 = DIRECTION ( 'NONE',  ( -3.491481338843133355E-15, 1.224646799147353207E-16, -1.000000000000000000 ) ) ;
#29 = DATE_AND_TIME ( #67, #45 ) ;
#30 = PERSON_AND_ORGANIZATION ( #225, #63 ) ;
#31 = CARTESIAN_POINT ( 'NONE',  ( 0.0000000000000000000, 2.400000000000028333, 0.0000000000000000000 ) ) ;
#32 = DATE_TIME_ROLE ( 'creation_date' ) ;
#33 = CC_DESIGN_PERSON_AND_ORGANIZATION_ASSIGNMENT ( #16, #12, ( #36 ) ) ;
#34 = ADVANCED_FACE ( 'NONE', ( #39 ), #176, .T. ) ;
#35 = PERSON_AND_ORGANIZATION ( #225, #63 ) ;
#36 = PRODUCT_DEFINITION_FORMATION_WITH_SPECIFIED_SOURCE ( 'ANY', '', #79, .NOT_KNOWN. ) ;
#37 = APPROVAL ( #64, 'UNSPECIFIED' ) ;
#38 = EDGE_LOOP ( 'NONE', ( #228 ) ) ;
#39 = FACE_OUTER_BOUND ( 'NONE', #75, .T. ) ;
#40 = ORIENTED_EDGE ( 'NONE', *, *, #143, .F. ) ;
#41 = AXIS2_PLACEMENT_3D ( 'NONE', #243, #76, #227 ) ;
#42 = DIRECTION ( 'NONE',  ( 4.275831445896958607E-31, 1.000000000000000000, 1.224646799147353207E-16 ) ) ;
#43 = DIRECTION ( 'NONE',  ( 0.0000000000000000000, 1.000000000000000000, 0.0000000000000000000 ) ) ;
#44 = FACE_OUTER_BOUND ( 'NONE', #195, .T. ) ;
#45 = LOCAL_TIME ( 13, 57, 44.00000000000000000, #125 ) ;
#46 = CARTESIAN_POINT ( 'NONE',  ( 2.793185071074506684E-13, -9.797174393178826052E-15, 80.00000000000000000 ) ) ;
#47 = APPLICATION_PROTOCOL_DEFINITION ( 'international standard', 'config_control_design', 1994, #65 ) ;
#48 = MANIFOLD_SOLID_BREP ( 'Corps-Déplacer/Copier1[1]', #72 ) ;
#49 = PERSON_AND_ORGANIZATION_ROLE ( 'classification_officer' ) ;
#50 = PERSON_AND_ORGANIZATION ( #225, #63 ) ;
#51 = CIRCLE ( 'NONE', #192, 1.999999999999992228 ) ;
#52 = LOCAL_TIME ( 13, 57, 44.00000000000000000, #202 ) ;
#53 = MANIFOLD_SOLID_BREP ( 'Corps-Déplacer/Copier1[2]', #115 ) ;
#54 = ADVANCED_FACE ( 'NONE', ( #117, #151 ), #156, .T. ) ;
#55 = ORIENTED_EDGE ( 'NONE', *, *, #174, .F. ) ;
#56 = ORIENTED_EDGE ( 'NONE', *, *, #174, .T. ) ;
#57 = DIRECTION ( 'NONE',  ( -3.491481338843133355E-15, 1.224646799147353207E-16, -1.000000000000000000 ) ) ;
#58 = DIRECTION ( 'NONE',  ( 0.0000000000000000000, 1.000000000000000000, 0.0000000000000000000 ) ) ;
#59 = FACE_OUTER_BOUND ( 'NONE', #23, .T. ) ;
#60 = VERTEX_POINT ( 'NONE', #31 ) ;
#61 = AXIS2_PLACEMENT_3D ( 'NONE', #118, #223, #209 ) ;
#62 = APPLICATION_PROTOCOL_DEFINITION ( 'international standard', 'config_control_design', 1994, #231 ) ;
#63 = ORGANIZATION ( 'UNSPECIFIED', 'UNSPECIFIED', '' ) ;
#64 = APPROVAL_STATUS ( 'not_yet_approved' ) ;
#65 = APPLICATION_CONTEXT ( 'configuration controlled 3d designs of mechanical parts and assemblies' ) ;
#66 = VERTEX_POINT ( 'NONE', #180 ) ;
#67 = CALENDAR_DATE ( 2021, 2, 12 ) ;
#68 = AXIS2_PLACEMENT_3D ( 'NONE', #21, #94, #98 ) ;
#69 = CC_DESIGN_SECURITY_CLASSIFICATION ( #236, ( #36 ) ) ;
#70 = APPROVAL ( #127, 'UNSPECIFIED' ) ;
#71 = ADVANCED_FACE ( 'NONE', ( #171 ), #175, .F. ) ;
#72 = CLOSED_SHELL ( 'NONE', ( #27, #170, #213, #92, #71 ) ) ;
#73 = DIRECTION ( 'NONE',  ( 3.491481338843133355E-15, -1.224646799147353207E-16, 1.000000000000000000 ) ) ;
#74 = EDGE_CURVE ( 'NONE', #60, #60, #5, .T. ) ;
#75 = EDGE_LOOP ( 'NONE', ( #96 ) ) ;
#76 = DIRECTION ( 'NONE',  ( -3.491481338843133355E-15, 1.224646799147353207E-16, -1.000000000000000000 ) ) ;
#77 = CC_DESIGN_PERSON_AND_ORGANIZATION_ASSIGNMENT ( #181, #11, ( #79 ) ) ;
#78 = ORIENTED_EDGE ( 'NONE', *, *, #123, .F. ) ;
#79 = PRODUCT ( '321786', '321786', '', ( #129 ) ) ;
#80 = EDGE_LOOP ( 'NONE', ( #56 ) ) ;
#81 = DIRECTION ( 'NONE',  ( -3.491481338843133355E-15, 1.224646799147353207E-16, -1.000000000000000000 ) ) ;
#82 = FACE_OUTER_BOUND ( 'NONE', #134, .T. ) ;
#83 = DIRECTION ( 'NONE',  ( -3.491481338843133355E-15, 1.224646799147353207E-16, -1.000000000000000000 ) ) ;
#84 = VERTEX_POINT ( 'NONE', #9 ) ;
#85 = CONICAL_SURFACE ( 'NONE', #162, 1.600000000000000977, 0.7853981633974512766 ) ;
#86 = DATE_AND_TIME ( #241, #187 ) ;
#87 = VERTEX_POINT ( 'NONE', #126 ) ;
#88 = APPROVAL_DATE_TIME ( #164, #37 ) ;
#89 = VERTEX_POINT ( 'NONE', #113 ) ;
#90 = APPROVAL_STATUS ( 'not_yet_approved' ) ;
#91 = SECURITY_CLASSIFICATION_LEVEL ( 'unclassified' ) ;
#92 = ADVANCED_FACE ( 'NONE', ( #3, #104 ), #85, .T. ) ;
#93 = EDGE_LOOP ( 'NONE', ( #99 ) ) ;
#94 = DIRECTION ( 'NONE',  ( -3.491481338843133355E-15, 1.224646799147353207E-16, -1.000000000000000000 ) ) ;
#95 = CC_DESIGN_PERSON_AND_ORGANIZATION_ASSIGNMENT ( #30, #49, ( #236 ) ) ;
#96 = ORIENTED_EDGE ( 'NONE', *, *, #13, .F. ) ;
#97 = LOCAL_TIME ( 13, 57, 44.00000000000000000, #237 ) ;
#98 = DIRECTION ( 'NONE',  ( 4.275831445896958607E-31, 1.000000000000000000, 1.224646799147352961E-16 ) ) ;
#99 = ORIENTED_EDGE ( 'NONE', *, *, #143, .T. ) ;
#100 = DIRECTION ( 'NONE',  ( 0.0000000000000000000, 1.000000000000000000, 0.0000000000000000000 ) ) ;
#101 = CIRCLE ( 'NONE', #205, 1.600000000000000977 ) ;
#102 = PRODUCT_DEFINITION_SHAPE ( 'NONE', 'NONE',  #22 ) ;
#103 =( GEOMETRIC_REPRESENTATION_CONTEXT ( 3 ) GLOBAL_UNCERTAINTY_ASSIGNED_CONTEXT ( ( #136 ) ) GLOBAL_UNIT_ASSIGNED_CONTEXT ( ( #163, #183, #166 ) ) REPRESENTATION_CONTEXT ( 'NONE', 'WORKASPACE' ) );
#104 = FACE_BOUND ( 'NONE', #18, .T. ) ;
#105 = CARTESIAN_POINT ( 'NONE',  ( -1.026199547015282222E-30, 3.599423478388500955E-32, -2.939152317953682604E-16 ) ) ;
#106 = DESIGN_CONTEXT ( 'detailed design', #65, 'design' ) ;
#107 = DIRECTION ( 'NONE',  ( -4.275831445896958607E-31, -1.000000000000000000, -1.224646799147353207E-16 ) ) ;
#108 = PERSON_AND_ORGANIZATION ( #225, #63 ) ;
#109 = VERTEX_POINT ( 'NONE', #14 ) ;
#110 = PERSON_AND_ORGANIZATION ( #225, #63 ) ;
#111 = DIRECTION ( 'NONE',  ( 4.275831445896958607E-31, 1.000000000000000000, 1.224646799147353207E-16 ) ) ;
#112 = DATE_AND_TIME ( #238, #97 ) ;
#113 = CARTESIAN_POINT ( 'NONE',  ( 1.396592535537252553E-15, 2.800000000000030020, 0.3999999999999997446 ) ) ;
#114 = CARTESIAN_POINT ( 'NONE',  ( 0.0000000000000000000, 0.0000000000000000000, 0.0000000000000000000 ) ) ;
#115 = CLOSED_SHELL ( 'NONE', ( #54, #34, #232, #240 ) ) ;
#116 = CARTESIAN_POINT ( 'NONE',  ( 4.189777606611760026E-14, 2.099663695726621178E-32, 12.00000000000000000 ) ) ;
#117 = FACE_OUTER_BOUND ( 'NONE', #38, .T. ) ;
#118 = CARTESIAN_POINT ( 'NONE',  ( 4.189777606611760026E-14, 2.099663695726621178E-32, 12.00000000000000000 ) ) ;
#119 = ORIENTED_EDGE ( 'NONE', *, *, #222, .T. ) ;
#120 = DIRECTION ( 'NONE',  ( -3.491481338843133355E-15, 1.224646799147353207E-16, -1.000000000000000000 ) ) ;
#121 = CARTESIAN_POINT ( 'NONE',  ( 1.396592535537251370E-15, -4.898587196589405680E-17, 0.3999999999999994116 ) ) ;
#122 = AXIS2_PLACEMENT_3D ( 'NONE', #26, #28, #111 ) ;
#123 = EDGE_CURVE ( 'NONE', #87, #87, #51, .T. ) ;
#124 = FACE_BOUND ( 'NONE', #190, .T. ) ;
#125 = COORDINATED_UNIVERSAL_TIME_OFFSET ( 1, 0, .AHEAD. ) ;
#126 = CARTESIAN_POINT ( 'NONE',  ( 4.673571452416174602E-14, 1.999999999999990452, 13.38564064605516357 ) ) ;
#127 = APPROVAL_STATUS ( 'not_yet_approved' ) ;
#128 = CONICAL_SURFACE ( 'NONE', #159, 2.800000000000030020, 0.5235987755983001479 ) ;
#129 = MECHANICAL_CONTEXT ( 'NONE', #231, 'mechanical' ) ;
#130 = CALENDAR_DATE ( 2021, 2, 12 ) ;
#131 = CC_DESIGN_PERSON_AND_ORGANIZATION_ASSIGNMENT ( #35, #10, ( #36 ) ) ;
#132 = EDGE_LOOP ( 'NONE', ( #206 ) ) ;
#133 = CONICAL_SURFACE ( 'NONE', #150, 2.400000000000028333, 0.7853981633974504994 ) ;
#134 = EDGE_LOOP ( 'NONE', ( #78 ) ) ;
#135 = ORIENTED_EDGE ( 'NONE', *, *, #74, .F. ) ;
#136 = UNCERTAINTY_MEASURE_WITH_UNIT (LENGTH_MEASURE( 1.000000000000000082E-05 ), #163, 'distance_accuracy_value', 'NONE');
#137 = DIRECTION ( 'NONE',  ( -3.491481338843133355E-15, 1.224646799147353207E-16, -1.000000000000000000 ) ) ;
#138 = AXIS2_PLACEMENT_3D ( 'NONE', #229, #137, #42 ) ;
#139 = APPROVAL ( #90, 'UNSPECIFIED' ) ;
#140 = CARTESIAN_POINT ( 'NONE',  ( 0.0000000000000000000, 0.0000000000000000000, 0.0000000000000000000 ) ) ;
#141 = DIRECTION ( 'NONE',  ( 4.126992737972604091E-31, 1.000000000000000000, 1.161645184805885176E-16 ) ) ;
#142 = ADVANCED_BREP_SHAPE_REPRESENTATION ( '321786', ( #48, #53, #178 ), #103 ) ;
#143 = EDGE_CURVE ( 'NONE', #89, #89, #182, .T. ) ;
#144 = DIRECTION ( 'NONE',  ( 0.0000000000000000000, 1.000000000000000000, 0.0000000000000000000 ) ) ;
#145 = DATE_TIME_ROLE ( 'classification_date' ) ;
#146 = EDGE_CURVE ( 'NONE', #66, #66, #210, .T. ) ;
#147 = SHAPE_DEFINITION_REPRESENTATION ( #102, #142 ) ;
#148 = DIRECTION ( 'NONE',  ( 0.0000000000000000000, 0.0000000000000000000, 1.000000000000000000 ) ) ;
#149 = AXIS2_PLACEMENT_3D ( 'NONE', #197, #196, #234 ) ;
#150 = AXIS2_PLACEMENT_3D ( 'NONE', #105, #201, #107 ) ;
#151 = FACE_OUTER_BOUND ( 'NONE', #191, .T. ) ;
#152 = ORIENTED_EDGE ( 'NONE', *, *, #123, .T. ) ;
#153 = LOCAL_TIME ( 13, 57, 44.00000000000000000, #220 ) ;
#154 = PLANE ( 'NONE',  #61 ) ;
#155 = EDGE_LOOP ( 'NONE', ( #152 ) ) ;
#156 = CYLINDRICAL_SURFACE ( 'NONE', #68, 2.800000000000030020 ) ;
#157 = PRODUCT_RELATED_PRODUCT_CATEGORY ( 'detail', '', ( #79 ) ) ;
#158 = DIRECTION ( 'NONE',  ( 0.0000000000000000000, 1.000000000000000000, 0.0000000000000000000 ) ) ;
#159 = AXIS2_PLACEMENT_3D ( 'NONE', #161, #7, #43 ) ;
#160 = FACE_OUTER_BOUND ( 'NONE', #2, .T. ) ;
#161 = CARTESIAN_POINT ( 'NONE',  ( 4.189777606611760026E-14, -1.469576158976823947E-15, 12.00000000000000000 ) ) ;
#162 = AXIS2_PLACEMENT_3D ( 'NONE', #179, #8, #144 ) ;
#163 =( LENGTH_UNIT ( ) NAMED_UNIT ( * ) SI_UNIT ( .MILLI., .METRE. ) );
#164 = DATE_AND_TIME ( #199, #153 ) ;
#165 = PERSON_AND_ORGANIZATION_ROLE ( 'creator' ) ;
#166 =( NAMED_UNIT ( * ) SI_UNIT ( $, .STERADIAN. ) SOLID_ANGLE_UNIT ( ) );
#167 = CARTESIAN_POINT ( 'NONE',  ( 4.189777606611760026E-14, 2.800000000000028688, 12.00000000000000000 ) ) ;
#168 = CC_DESIGN_APPROVAL ( #139, ( #236 ) ) ;
#169 = AXIS2_PLACEMENT_3D ( 'NONE', #177, #81, #158 ) ;
#170 = ADVANCED_FACE ( 'NONE', ( #230, #59 ), #128, .T. ) ;
#171 = FACE_OUTER_BOUND ( 'NONE', #20, .T. ) ;
#172 = AXIS2_PLACEMENT_3D ( 'NONE', #173, #207, #211 ) ;
#173 = CARTESIAN_POINT ( 'NONE',  ( 4.189777606611760026E-14, -1.469576158976823947E-15, 12.00000000000000000 ) ) ;
#174 = EDGE_CURVE ( 'NONE', #217, #217, #200, .T. ) ;
#175 = PLANE ( 'NONE',  #138 ) ;
#176 = PLANE ( 'NONE',  #17 ) ;
#177 = CARTESIAN_POINT ( 'NONE',  ( 2.779219145719134403E-13, -9.748188521212932624E-15, 79.60000000000000853 ) ) ;
#178 = AXIS2_PLACEMENT_3D ( 'NONE', #114, #148, #219 ) ;
#179 = CARTESIAN_POINT ( 'NONE',  ( 2.793185071074506684E-13, -9.797174393178826052E-15, 80.00000000000000000 ) ) ;
#180 = CARTESIAN_POINT ( 'NONE',  ( 2.779219145719134403E-13, 1.999999999999991340, 79.60000000000000853 ) ) ;
#181 = PERSON_AND_ORGANIZATION ( #225, #63 ) ;
#182 = CIRCLE ( 'NONE', #221, 2.800000000000030020 ) ;
#183 =( NAMED_UNIT ( * ) PLANE_ANGLE_UNIT ( ) SI_UNIT ( $, .RADIAN. ) );
#184 = CC_DESIGN_PERSON_AND_ORGANIZATION_ASSIGNMENT ( #110, #165, ( #22 ) ) ;
#185 = FACE_OUTER_BOUND ( 'NONE', #93, .T. ) ;
#186 = DATE_AND_TIME ( #130, #52 ) ;
#187 = LOCAL_TIME ( 13, 57, 44.00000000000000000, #235 ) ;
#188 = APPROVAL_ROLE ( '' ) ;
#189 = CC_DESIGN_DATE_AND_TIME_ASSIGNMENT ( #186, #32, ( #22 ) ) ;
#190 = EDGE_LOOP ( 'NONE', ( #135 ) ) ;
#191 = EDGE_LOOP ( 'NONE', ( #40 ) ) ;
#192 = AXIS2_PLACEMENT_3D ( 'NONE', #212, #83, #58 ) ;
#193 = CC_DESIGN_APPROVAL ( #70, ( #36 ) ) ;
#194 = DIRECTION ( 'NONE',  ( -4.275831445896958607E-31, -1.000000000000000000, -1.224646799147353207E-16 ) ) ;
#195 = EDGE_LOOP ( 'NONE', ( #242 ) ) ;
#196 = DIRECTION ( 'NONE',  ( -3.491481338843133355E-15, 1.224646799147353207E-16, -1.000000000000000000 ) ) ;
#197 = CARTESIAN_POINT ( 'NONE',  ( 4.189777606611760026E-14, -1.469576158976823947E-15, 12.00000000000000000 ) ) ;
#198 = APPROVAL_ROLE ( '' ) ;
#199 = CALENDAR_DATE ( 2021, 2, 12 ) ;
#200 = CIRCLE ( 'NONE', #149, 2.800000000000030020 ) ;
#201 = DIRECTION ( 'NONE',  ( 3.491481338843133355E-15, -1.224646799147353207E-16, 1.000000000000000000 ) ) ;
#202 = COORDINATED_UNIVERSAL_TIME_OFFSET ( 1, 0, .AHEAD. ) ;
#203 = APPROVAL_DATE_TIME ( #112, #70 ) ;
#204 = PERSON_AND_ORGANIZATION ( #225, #63 ) ;
#205 = AXIS2_PLACEMENT_3D ( 'NONE', #46, #233, #100 ) ;
#206 = ORIENTED_EDGE ( 'NONE', *, *, #146, .F. ) ;
#207 = DIRECTION ( 'NONE',  ( -3.491481338843133355E-15, 1.224646799147353207E-16, -1.000000000000000000 ) ) ;
#208 = FACE_OUTER_BOUND ( 'NONE', #80, .T. ) ;
#209 = DIRECTION ( 'NONE',  ( -4.275831445896958607E-31, -1.000000000000000000, -1.224646799147353207E-16 ) ) ;
#210 = CIRCLE ( 'NONE', #169, 2.000000000000000888 ) ;
#211 = DIRECTION ( 'NONE',  ( 0.0000000000000000000, 1.000000000000000000, 0.0000000000000000000 ) ) ;
#212 = CARTESIAN_POINT ( 'NONE',  ( 4.673571452416174602E-14, -1.639268197172816429E-15, 13.38564064605516357 ) ) ;
#213 = ADVANCED_FACE ( 'NONE', ( #82, #44 ), #215, .T. ) ;
#214 = PLANE ( 'NONE',  #122 ) ;
#215 = CYLINDRICAL_SURFACE ( 'NONE', #239, 1.999999999999996669 ) ;
#216 = APPROVAL_ROLE ( '' ) ;
#217 = VERTEX_POINT ( 'NONE', #167 ) ;
#218 = APPROVAL_DATE_TIME ( #29, #139 ) ;
#219 = DIRECTION ( 'NONE',  ( 1.000000000000000000, 0.0000000000000000000, 0.0000000000000000000 ) ) ;
#220 = COORDINATED_UNIVERSAL_TIME_OFFSET ( 1, 0, .AHEAD. ) ;
#221 = AXIS2_PLACEMENT_3D ( 'NONE', #121, #57, #141 ) ;
#222 = EDGE_CURVE ( 'NONE', #84, #84, #101, .T. ) ;
#223 = DIRECTION ( 'NONE',  ( 3.491481338843133355E-15, -1.224646799147353207E-16, 1.000000000000000000 ) ) ;
#224 = ORIENTED_EDGE ( 'NONE', *, *, #74, .T. ) ;
#225 = PERSON ( 'UNSPECIFIED', 'UNSPECIFIED', 'UNSPECIFIED', ('UNSPECIFIED'), ('UNSPECIFIED'), ('UNSPECIFIED') ) ;
#226 = APPROVAL_PERSON_ORGANIZATION ( #108, #139, #216 ) ;
#227 = DIRECTION ( 'NONE',  ( 4.275831445896958607E-31, 1.000000000000000000, 1.224646799147353207E-16 ) ) ;
#228 = ORIENTED_EDGE ( 'NONE', *, *, #13, .T. ) ;
#229 = CARTESIAN_POINT ( 'NONE',  ( 2.793185071074506684E-13, 1.199807826129472128E-32, 80.00000000000000000 ) ) ;
#230 = FACE_BOUND ( 'NONE', #155, .T. ) ;
#231 = APPLICATION_CONTEXT ( 'configuration controlled 3d designs of mechanical parts and assemblies' ) ;
#232 = ADVANCED_FACE ( 'NONE', ( #160 ), #214, .T. ) ;
#233 = DIRECTION ( 'NONE',  ( -3.491481338843133355E-15, 1.224646799147353207E-16, -1.000000000000000000 ) ) ;
#234 = DIRECTION ( 'NONE',  ( 0.0000000000000000000, 1.000000000000000000, 0.0000000000000000000 ) ) ;
#235 = COORDINATED_UNIVERSAL_TIME_OFFSET ( 1, 0, .AHEAD. ) ;
#236 = SECURITY_CLASSIFICATION ( '', '', #91 ) ;
#237 = COORDINATED_UNIVERSAL_TIME_OFFSET ( 1, 0, .AHEAD. ) ;
#238 = CALENDAR_DATE ( 2021, 2, 12 ) ;
#239 = AXIS2_PLACEMENT_3D ( 'NONE', #140, #120, #24 ) ;
#240 = ADVANCED_FACE ( 'NONE', ( #185, #124 ), #133, .T. ) ;
#241 = CALENDAR_DATE ( 2021, 2, 12 ) ;
#242 = ORIENTED_EDGE ( 'NONE', *, *, #146, .T. ) ;
#243 = CARTESIAN_POINT ( 'NONE',  ( -1.026199547015282222E-30, 3.599423478388500955E-32, -2.939152317953682604E-16 ) ) ;
ENDSEC;
END-ISO-10303-21;
