ISO-10303-21;
HEADER;
FILE_DESCRIPTION (( 'STEP AP203' ),
    '1' );
FILE_NAME ('321781.step',
    '2021-12-02T12:57:40',
    ( '' ),
    ( '' ),
    'SwSTEP 2.0',
    'SolidWorks 2019',
    '' );
FILE_SCHEMA (( 'CONFIG_CONTROL_DESIGN' ));
ENDSEC;

DATA;
#1 = CC_DESIGN_DATE_AND_TIME_ASSIGNMENT ( #67, #7, ( #72 ) ) ;
#2 = COORDINATED_UNIVERSAL_TIME_OFFSET ( 1, 0, .AHEAD. ) ;
#3 = APPLICATION_CONTEXT ( 'configuration controlled 3d designs of mechanical parts and assemblies' ) ;
#4 =( NAMED_UNIT ( * ) SI_UNIT ( $, .STERADIAN. ) SOLID_ANGLE_UNIT ( ) );
#5 = AXIS2_PLACEMENT_3D ( 'NONE', #224, #42, #78 ) ;
#6 = CALENDAR_DATE ( 2021, 2, 12 ) ;
#7 = DATE_TIME_ROLE ( 'creation_date' ) ;
#8 = VERTEX_POINT ( 'NONE', #121 ) ;
#9 = CARTESIAN_POINT ( 'NONE',  ( 1.396592535537251370E-15, -4.898587196589405680E-17, 0.3999999999999994116 ) ) ;
#10 = ORIENTED_EDGE ( 'NONE', *, *, #139, .F. ) ;
#11 = DIRECTION ( 'NONE',  ( -3.491481338843133355E-15, 1.224646799147353207E-16, -1.000000000000000000 ) ) ;
#12 = CIRCLE ( 'NONE', #135, 2.775000000000030109 ) ;
#13 = FACE_OUTER_BOUND ( 'NONE', #150, .T. ) ;
#14 = DESIGN_CONTEXT ( 'detailed design', #124, 'design' ) ;
#15 = APPROVAL ( #219, 'UNSPECIFIED' ) ;
#16 = FACE_OUTER_BOUND ( 'NONE', #115, .T. ) ;
#17 = CARTESIAN_POINT ( 'NONE',  ( 1.396592535537252553E-15, 2.775000000000030109, 0.3999999999999997446 ) ) ;
#18 = PRODUCT ( '321781', '321781', '', ( #142 ) ) ;
#19 = EDGE_LOOP ( 'NONE', ( #174 ) ) ;
#20 = ADVANCED_FACE ( 'NONE', ( #13, #241 ), #223, .T. ) ;
#21 = CONICAL_SURFACE ( 'NONE', #65, 2.775000000000030109, 0.5235987755983005920 ) ;
#22 = APPROVAL_DATE_TIME ( #32, #92 ) ;
#23 = CIRCLE ( 'NONE', #64, 2.000000000000000888 ) ;
#24 = CC_DESIGN_SECURITY_CLASSIFICATION ( #190, ( #143 ) ) ;
#25 = EDGE_CURVE ( 'NONE', #112, #112, #56, .T. ) ;
#26 = SHAPE_DEFINITION_REPRESENTATION ( #84, #88 ) ;
#27 = FACE_BOUND ( 'NONE', #191, .T. ) ;
#28 = FACE_OUTER_BOUND ( 'NONE', #153, .T. ) ;
#29 = AXIS2_PLACEMENT_3D ( 'NONE', #58, #225, #133 ) ;
#30 = LOCAL_TIME ( 13, 57, 40.00000000000000000, #66 ) ;
#31 = CARTESIAN_POINT ( 'NONE',  ( 4.189777606611760026E-14, -1.469576158976823947E-15, 12.00000000000000000 ) ) ;
#32 = DATE_AND_TIME ( #141, #136 ) ;
#33 = CARTESIAN_POINT ( 'NONE',  ( 4.189777606611760026E-14, 2.080916698443348368E-32, 12.00000000000000000 ) ) ;
#34 = DIRECTION ( 'NONE',  ( 0.0000000000000000000, 1.000000000000000000, 0.0000000000000000000 ) ) ;
#35 = ORIENTED_EDGE ( 'NONE', *, *, #168, .T. ) ;
#36 = ORIENTED_EDGE ( 'NONE', *, *, #147, .F. ) ;
#37 = ORIENTED_EDGE ( 'NONE', *, *, #25, .T. ) ;
#38 = MANIFOLD_SOLID_BREP ( 'Corps-Déplacer/Copier1[2]', #155 ) ;
#39 =( NAMED_UNIT ( * ) PLANE_ANGLE_UNIT ( ) SI_UNIT ( $, .RADIAN. ) );
#40 = CARTESIAN_POINT ( 'NONE',  ( 2.779219145719134403E-13, -9.748188521212932624E-15, 79.60000000000000853 ) ) ;
#41 = CARTESIAN_POINT ( 'NONE',  ( 2.793185071074506684E-13, 1.599999999999991207, 80.00000000000000000 ) ) ;
#42 = DIRECTION ( 'NONE',  ( -3.491481338843133355E-15, 1.224646799147353207E-16, -1.000000000000000000 ) ) ;
#43 = CC_DESIGN_APPROVAL ( #202, ( #143 ) ) ;
#44 = CC_DESIGN_PERSON_AND_ORGANIZATION_ASSIGNMENT ( #162, #178, ( #72 ) ) ;
#45 = CARTESIAN_POINT ( 'NONE',  ( 0.0000000000000000000, 0.0000000000000000000, 0.0000000000000000000 ) ) ;
#46 = APPROVAL_STATUS ( 'not_yet_approved' ) ;
#47 = PERSON_AND_ORGANIZATION_ROLE ( 'creator' ) ;
#48 = DIRECTION ( 'NONE',  ( -3.491481338843133355E-15, 1.224646799147353207E-16, -1.000000000000000000 ) ) ;
#49 = PERSON_AND_ORGANIZATION ( #227, #102 ) ;
#50 = DIRECTION ( 'NONE',  ( 3.491481338843133355E-15, -1.224646799147353207E-16, 1.000000000000000000 ) ) ;
#51 = PERSON_AND_ORGANIZATION_ROLE ( 'design_supplier' ) ;
#52 = AXIS2_PLACEMENT_3D ( 'NONE', #33, #50, #94 ) ;
#53 = CC_DESIGN_PERSON_AND_ORGANIZATION_ASSIGNMENT ( #107, #144, ( #190 ) ) ;
#54 = ADVANCED_FACE ( 'NONE', ( #175 ), #211, .T. ) ;
#55 = FACE_BOUND ( 'NONE', #242, .T. ) ;
#56 = CIRCLE ( 'NONE', #123, 2.775000000000030109 ) ;
#57 = LOCAL_TIME ( 13, 57, 40.00000000000000000, #126 ) ;
#58 = CARTESIAN_POINT ( 'NONE',  ( 4.189777606611760026E-14, 2.080916698443348368E-32, 12.00000000000000000 ) ) ;
#59 = ORIENTED_EDGE ( 'NONE', *, *, #180, .T. ) ;
#60 = FACE_OUTER_BOUND ( 'NONE', #238, .T. ) ;
#61 = CARTESIAN_POINT ( 'NONE',  ( 4.189777606611760026E-14, -1.469576158976823947E-15, 12.00000000000000000 ) ) ;
#62 = PRODUCT_RELATED_PRODUCT_CATEGORY ( 'detail', '', ( #18 ) ) ;
#63 = AXIS2_PLACEMENT_3D ( 'NONE', #243, #131, #208 ) ;
#64 = AXIS2_PLACEMENT_3D ( 'NONE', #40, #100, #215 ) ;
#65 = AXIS2_PLACEMENT_3D ( 'NONE', #31, #90, #34 ) ;
#66 = COORDINATED_UNIVERSAL_TIME_OFFSET ( 1, 0, .AHEAD. ) ;
#67 = DATE_AND_TIME ( #183, #205 ) ;
#68 = CC_DESIGN_APPROVAL ( #92, ( #72 ) ) ;
#69 = ADVANCED_FACE ( 'NONE', ( #16 ), #77, .F. ) ;
#70 = CARTESIAN_POINT ( 'NONE',  ( 2.793185071074506684E-13, 1.199807826129472128E-32, 80.00000000000000000 ) ) ;
#71 = APPROVAL_DATE_TIME ( #197, #202 ) ;
#72 = PRODUCT_DEFINITION ( 'UNKNOWN', '', #143, #14 ) ;
#73 = FACE_OUTER_BOUND ( 'NONE', #96, .T. ) ;
#74 = FACE_OUTER_BOUND ( 'NONE', #187, .T. ) ;
#75 = EDGE_LOOP ( 'NONE', ( #167 ) ) ;
#76 = CARTESIAN_POINT ( 'NONE',  ( 4.189777606611760026E-14, 2.775000000000028777, 12.00000000000000000 ) ) ;
#77 = PLANE ( 'NONE',  #29 ) ;
#78 = DIRECTION ( 'NONE',  ( 4.275831445896958607E-31, 1.000000000000000000, 1.224646799147353207E-16 ) ) ;
#79 = DIRECTION ( 'NONE',  ( -4.275831445896958607E-31, -1.000000000000000000, -1.224646799147353207E-16 ) ) ;
#80 = CARTESIAN_POINT ( 'NONE',  ( 4.189777606611760026E-14, -1.469576158976823947E-15, 12.00000000000000000 ) ) ;
#81 = AXIS2_PLACEMENT_3D ( 'NONE', #70, #48, #129 ) ;
#82 = EDGE_CURVE ( 'NONE', #8, #8, #171, .T. ) ;
#83 = DIRECTION ( 'NONE',  ( -3.491481338843133355E-15, 1.224646799147353207E-16, -1.000000000000000000 ) ) ;
#84 = PRODUCT_DEFINITION_SHAPE ( 'NONE', 'NONE',  #72 ) ;
#85 = LOCAL_TIME ( 13, 57, 40.00000000000000000, #111 ) ;
#86 = PERSON_AND_ORGANIZATION ( #227, #102 ) ;
#87 = DATE_AND_TIME ( #106, #85 ) ;
#88 = ADVANCED_BREP_SHAPE_REPRESENTATION ( '321781', ( #122, #38, #140 ), #148 ) ;
#89 = CC_DESIGN_APPROVAL ( #15, ( #190 ) ) ;
#90 = DIRECTION ( 'NONE',  ( -3.491481338843133355E-15, 1.224646799147353207E-16, -1.000000000000000000 ) ) ;
#91 = PERSON_AND_ORGANIZATION ( #227, #102 ) ;
#92 = APPROVAL ( #127, 'UNSPECIFIED' ) ;
#93 = UNCERTAINTY_MEASURE_WITH_UNIT (LENGTH_MEASURE( 1.000000000000000082E-05 ), #221, 'distance_accuracy_value', 'NONE');
#94 = DIRECTION ( 'NONE',  ( -4.275831445896958607E-31, -1.000000000000000000, -1.224646799147353207E-16 ) ) ;
#95 = ORIENTED_EDGE ( 'NONE', *, *, #25, .F. ) ;
#96 = EDGE_LOOP ( 'NONE', ( #95 ) ) ;
#97 = CONICAL_SURFACE ( 'NONE', #109, 1.600000000000000977, 0.7853981633974512766 ) ;
#98 = DIRECTION ( 'NONE',  ( 3.491481338843133355E-15, -1.224646799147353207E-16, 1.000000000000000000 ) ) ;
#99 = CC_DESIGN_PERSON_AND_ORGANIZATION_ASSIGNMENT ( #91, #51, ( #143 ) ) ;
#100 = DIRECTION ( 'NONE',  ( -3.491481338843133355E-15, 1.224646799147353207E-16, -1.000000000000000000 ) ) ;
#101 = VERTEX_POINT ( 'NONE', #176 ) ;
#102 = ORGANIZATION ( 'UNSPECIFIED', 'UNSPECIFIED', '' ) ;
#103 = VERTEX_POINT ( 'NONE', #17 ) ;
#104 = CONICAL_SURFACE ( 'NONE', #237, 2.375000000000028422, 0.7853981633974504994 ) ;
#105 = APPLICATION_PROTOCOL_DEFINITION ( 'international standard', 'config_control_design', 1994, #3 ) ;
#106 = CALENDAR_DATE ( 2021, 2, 12 ) ;
#107 = PERSON_AND_ORGANIZATION ( #227, #102 ) ;
#108 = CYLINDRICAL_SURFACE ( 'NONE', #201, 2.775000000000030109 ) ;
#109 = AXIS2_PLACEMENT_3D ( 'NONE', #182, #128, #110 ) ;
#110 = DIRECTION ( 'NONE',  ( 0.0000000000000000000, 1.000000000000000000, 0.0000000000000000000 ) ) ;
#111 = COORDINATED_UNIVERSAL_TIME_OFFSET ( 1, 0, .AHEAD. ) ;
#112 = VERTEX_POINT ( 'NONE', #185 ) ;
#113 = ADVANCED_FACE ( 'NONE', ( #60, #117 ), #104, .T. ) ;
#114 = DIRECTION ( 'NONE',  ( -3.491481338843133355E-15, 1.224646799147353207E-16, -1.000000000000000000 ) ) ;
#115 = EDGE_LOOP ( 'NONE', ( #116 ) ) ;
#116 = ORIENTED_EDGE ( 'NONE', *, *, #139, .T. ) ;
#117 = FACE_BOUND ( 'NONE', #75, .T. ) ;
#118 = CC_DESIGN_PERSON_AND_ORGANIZATION_ASSIGNMENT ( #231, #47, ( #143 ) ) ;
#119 = DIRECTION ( 'NONE',  ( 4.275831445896958607E-31, 1.000000000000000000, 1.224646799147353207E-16 ) ) ;
#120 = CC_DESIGN_DATE_AND_TIME_ASSIGNMENT ( #196, #236, ( #190 ) ) ;
#121 = CARTESIAN_POINT ( 'NONE',  ( 4.658452894734787081E-14, 1.999999999999990452, 13.34233937586594010 ) ) ;
#122 = MANIFOLD_SOLID_BREP ( 'Corps-Déplacer/Copier1[1]', #214 ) ;
#123 = AXIS2_PLACEMENT_3D ( 'NONE', #61, #204, #239 ) ;
#124 = APPLICATION_CONTEXT ( 'configuration controlled 3d designs of mechanical parts and assemblies' ) ;
#125 = PERSON_AND_ORGANIZATION_ROLE ( 'design_owner' ) ;
#126 = COORDINATED_UNIVERSAL_TIME_OFFSET ( 1, 0, .AHEAD. ) ;
#127 = APPROVAL_STATUS ( 'not_yet_approved' ) ;
#128 = DIRECTION ( 'NONE',  ( -3.491481338843133355E-15, 1.224646799147353207E-16, -1.000000000000000000 ) ) ;
#129 = DIRECTION ( 'NONE',  ( 4.275831445896958607E-31, 1.000000000000000000, 1.224646799147353207E-16 ) ) ;
#130 = APPROVAL_ROLE ( '' ) ;
#131 = DIRECTION ( 'NONE',  ( -3.491481338843133355E-15, 1.224646799147353207E-16, -1.000000000000000000 ) ) ;
#132 = VERTEX_POINT ( 'NONE', #76 ) ;
#133 = DIRECTION ( 'NONE',  ( -4.275831445896958607E-31, -1.000000000000000000, -1.224646799147353207E-16 ) ) ;
#134 = DIRECTION ( 'NONE',  ( -3.491481338843133355E-15, 1.224646799147353207E-16, -1.000000000000000000 ) ) ;
#135 = AXIS2_PLACEMENT_3D ( 'NONE', #80, #134, #209 ) ;
#136 = LOCAL_TIME ( 13, 57, 40.00000000000000000, #2 ) ;
#137 = CARTESIAN_POINT ( 'NONE',  ( 0.0000000000000000000, 0.0000000000000000000, 0.0000000000000000000 ) ) ;
#138 = ORIENTED_EDGE ( 'NONE', *, *, #213, .T. ) ;
#139 = EDGE_CURVE ( 'NONE', #132, #132, #12, .T. ) ;
#140 = AXIS2_PLACEMENT_3D ( 'NONE', #45, #200, #181 ) ;
#141 = CALENDAR_DATE ( 2021, 2, 12 ) ;
#142 = MECHANICAL_CONTEXT ( 'NONE', #3, 'mechanical' ) ;
#143 = PRODUCT_DEFINITION_FORMATION_WITH_SPECIFIED_SOURCE ( 'ANY', '', #18, .NOT_KNOWN. ) ;
#144 = PERSON_AND_ORGANIZATION_ROLE ( 'classification_officer' ) ;
#145 = PERSON_AND_ORGANIZATION ( #227, #102 ) ;
#146 = DIRECTION ( 'NONE',  ( -3.491481338843133355E-15, 1.224646799147353207E-16, -1.000000000000000000 ) ) ;
#147 = EDGE_CURVE ( 'NONE', #207, #207, #23, .T. ) ;
#148 =( GEOMETRIC_REPRESENTATION_CONTEXT ( 3 ) GLOBAL_UNCERTAINTY_ASSIGNED_CONTEXT ( ( #93 ) ) GLOBAL_UNIT_ASSIGNED_CONTEXT ( ( #221, #39, #4 ) ) REPRESENTATION_CONTEXT ( 'NONE', 'WORKASPACE' ) );
#149 = ORIENTED_EDGE ( 'NONE', *, *, #82, .T. ) ;
#150 = EDGE_LOOP ( 'NONE', ( #169 ) ) ;
#151 = EDGE_LOOP ( 'NONE', ( #192 ) ) ;
#152 = ADVANCED_FACE ( 'NONE', ( #230 ), #220, .F. ) ;
#153 = EDGE_LOOP ( 'NONE', ( #154 ) ) ;
#154 = ORIENTED_EDGE ( 'NONE', *, *, #180, .F. ) ;
#155 = CLOSED_SHELL ( 'NONE', ( #158, #222, #54, #113 ) ) ;
#156 = APPROVAL_PERSON_ORGANIZATION ( #49, #92, #130 ) ;
#157 = CARTESIAN_POINT ( 'NONE',  ( 2.793185071074506684E-13, -9.797174393178826052E-15, 80.00000000000000000 ) ) ;
#158 = ADVANCED_FACE ( 'NONE', ( #198, #28 ), #108, .T. ) ;
#159 = APPROVAL_PERSON_ORGANIZATION ( #145, #15, #161 ) ;
#160 = APPROVAL_ROLE ( '' ) ;
#161 = APPROVAL_ROLE ( '' ) ;
#162 = PERSON_AND_ORGANIZATION ( #227, #102 ) ;
#163 = DIRECTION ( 'NONE',  ( 4.275831445896958607E-31, 1.000000000000000000, 1.224646799147353207E-16 ) ) ;
#164 = SECURITY_CLASSIFICATION_LEVEL ( 'unclassified' ) ;
#165 = CARTESIAN_POINT ( 'NONE',  ( -1.015509968400539865E-30, 3.561929483821954788E-32, -2.908536147974998719E-16 ) ) ;
#166 = FACE_OUTER_BOUND ( 'NONE', #206, .T. ) ;
#167 = ORIENTED_EDGE ( 'NONE', *, *, #213, .F. ) ;
#168 = EDGE_CURVE ( 'NONE', #177, #177, #210, .T. ) ;
#169 = ORIENTED_EDGE ( 'NONE', *, *, #82, .F. ) ;
#170 = EDGE_LOOP ( 'NONE', ( #138 ) ) ;
#171 = CIRCLE ( 'NONE', #63, 1.999999999999992228 ) ;
#172 = AXIS2_PLACEMENT_3D ( 'NONE', #9, #146, #203 ) ;
#173 = CIRCLE ( 'NONE', #195, 2.375000000000028422 ) ;
#174 = ORIENTED_EDGE ( 'NONE', *, *, #168, .F. ) ;
#175 = FACE_OUTER_BOUND ( 'NONE', #170, .T. ) ;
#176 = CARTESIAN_POINT ( 'NONE',  ( 0.0000000000000000000, 2.375000000000028422, 0.0000000000000000000 ) ) ;
#177 = VERTEX_POINT ( 'NONE', #41 ) ;
#178 = PERSON_AND_ORGANIZATION_ROLE ( 'creator' ) ;
#179 = ADVANCED_FACE ( 'NONE', ( #55, #74 ), #21, .T. ) ;
#180 = EDGE_CURVE ( 'NONE', #103, #103, #229, .T. ) ;
#181 = DIRECTION ( 'NONE',  ( 1.000000000000000000, 0.0000000000000000000, 0.0000000000000000000 ) ) ;
#182 = CARTESIAN_POINT ( 'NONE',  ( 2.793185071074506684E-13, -9.797174393178826052E-15, 80.00000000000000000 ) ) ;
#183 = CALENDAR_DATE ( 2021, 2, 12 ) ;
#184 = APPROVAL_DATE_TIME ( #87, #15 ) ;
#185 = CARTESIAN_POINT ( 'NONE',  ( 4.189777606611760026E-14, 2.775000000000028777, 12.00000000000000000 ) ) ;
#186 = PLANE ( 'NONE',  #52 ) ;
#187 = EDGE_LOOP ( 'NONE', ( #10 ) ) ;
#188 = CARTESIAN_POINT ( 'NONE',  ( 0.0000000000000000000, 0.0000000000000000000, 0.0000000000000000000 ) ) ;
#189 = CARTESIAN_POINT ( 'NONE',  ( -1.015509968400539865E-30, 3.561929483821954788E-32, -2.908536147974998719E-16 ) ) ;
#190 = SECURITY_CLASSIFICATION ( '', '', #164 ) ;
#191 = EDGE_LOOP ( 'NONE', ( #35 ) ) ;
#192 = ORIENTED_EDGE ( 'NONE', *, *, #147, .T. ) ;
#193 = CARTESIAN_POINT ( 'NONE',  ( 2.779219145719134403E-13, 1.999999999999991340, 79.60000000000000853 ) ) ;
#194 = PERSON_AND_ORGANIZATION ( #227, #102 ) ;
#195 = AXIS2_PLACEMENT_3D ( 'NONE', #165, #114, #163 ) ;
#196 = DATE_AND_TIME ( #218, #30 ) ;
#197 = DATE_AND_TIME ( #6, #57 ) ;
#198 = FACE_OUTER_BOUND ( 'NONE', #226, .T. ) ;
#199 = CC_DESIGN_PERSON_AND_ORGANIZATION_ASSIGNMENT ( #194, #125, ( #18 ) ) ;
#200 = DIRECTION ( 'NONE',  ( 0.0000000000000000000, 0.0000000000000000000, 1.000000000000000000 ) ) ;
#201 = AXIS2_PLACEMENT_3D ( 'NONE', #137, #228, #212 ) ;
#202 = APPROVAL ( #46, 'UNSPECIFIED' ) ;
#203 = DIRECTION ( 'NONE',  ( 4.164172852729113769E-31, 1.000000000000000000, 1.172110456741073255E-16 ) ) ;
#204 = DIRECTION ( 'NONE',  ( -3.491481338843133355E-15, 1.224646799147353207E-16, -1.000000000000000000 ) ) ;
#205 = LOCAL_TIME ( 13, 57, 40.00000000000000000, #235 ) ;
#206 = EDGE_LOOP ( 'NONE', ( #36 ) ) ;
#207 = VERTEX_POINT ( 'NONE', #193 ) ;
#208 = DIRECTION ( 'NONE',  ( 0.0000000000000000000, 1.000000000000000000, 0.0000000000000000000 ) ) ;
#209 = DIRECTION ( 'NONE',  ( 0.0000000000000000000, 1.000000000000000000, 0.0000000000000000000 ) ) ;
#210 = CIRCLE ( 'NONE', #216, 1.600000000000000977 ) ;
#211 = PLANE ( 'NONE',  #5 ) ;
#212 = DIRECTION ( 'NONE',  ( 4.275831445896958607E-31, 1.000000000000000000, 1.224646799147353207E-16 ) ) ;
#213 = EDGE_CURVE ( 'NONE', #101, #101, #173, .T. ) ;
#214 = CLOSED_SHELL ( 'NONE', ( #69, #179, #20, #240, #152 ) ) ;
#215 = DIRECTION ( 'NONE',  ( 0.0000000000000000000, 1.000000000000000000, 0.0000000000000000000 ) ) ;
#216 = AXIS2_PLACEMENT_3D ( 'NONE', #157, #83, #234 ) ;
#217 = APPLICATION_PROTOCOL_DEFINITION ( 'international standard', 'config_control_design', 1994, #124 ) ;
#218 = CALENDAR_DATE ( 2021, 2, 12 ) ;
#219 = APPROVAL_STATUS ( 'not_yet_approved' ) ;
#220 = PLANE ( 'NONE',  #81 ) ;
#221 =( LENGTH_UNIT ( ) NAMED_UNIT ( * ) SI_UNIT ( .MILLI., .METRE. ) );
#222 = ADVANCED_FACE ( 'NONE', ( #73 ), #186, .T. ) ;
#223 = CYLINDRICAL_SURFACE ( 'NONE', #232, 1.999999999999996669 ) ;
#224 = CARTESIAN_POINT ( 'NONE',  ( -5.077549842002699324E-31, 1.780964741910977394E-32, -1.454268073987499359E-16 ) ) ;
#225 = DIRECTION ( 'NONE',  ( 3.491481338843133355E-15, -1.224646799147353207E-16, 1.000000000000000000 ) ) ;
#226 = EDGE_LOOP ( 'NONE', ( #37 ) ) ;
#227 = PERSON ( 'UNSPECIFIED', 'UNSPECIFIED', 'UNSPECIFIED', ('UNSPECIFIED'), ('UNSPECIFIED'), ('UNSPECIFIED') ) ;
#228 = DIRECTION ( 'NONE',  ( -3.491481338843133355E-15, 1.224646799147353207E-16, -1.000000000000000000 ) ) ;
#229 = CIRCLE ( 'NONE', #172, 2.775000000000030109 ) ;
#230 = FACE_OUTER_BOUND ( 'NONE', #19, .T. ) ;
#231 = PERSON_AND_ORGANIZATION ( #227, #102 ) ;
#232 = AXIS2_PLACEMENT_3D ( 'NONE', #188, #11, #119 ) ;
#233 = APPROVAL_PERSON_ORGANIZATION ( #86, #202, #160 ) ;
#234 = DIRECTION ( 'NONE',  ( 0.0000000000000000000, 1.000000000000000000, 0.0000000000000000000 ) ) ;
#235 = COORDINATED_UNIVERSAL_TIME_OFFSET ( 1, 0, .AHEAD. ) ;
#236 = DATE_TIME_ROLE ( 'classification_date' ) ;
#237 = AXIS2_PLACEMENT_3D ( 'NONE', #189, #98, #79 ) ;
#238 = EDGE_LOOP ( 'NONE', ( #59 ) ) ;
#239 = DIRECTION ( 'NONE',  ( 0.0000000000000000000, 1.000000000000000000, 0.0000000000000000000 ) ) ;
#240 = ADVANCED_FACE ( 'NONE', ( #166, #27 ), #97, .T. ) ;
#241 = FACE_OUTER_BOUND ( 'NONE', #151, .T. ) ;
#242 = EDGE_LOOP ( 'NONE', ( #149 ) ) ;
#243 = CARTESIAN_POINT ( 'NONE',  ( 4.658452894734787081E-14, -1.633965320979191800E-15, 13.34233937586594010 ) ) ;
ENDSEC;
END-ISO-10303-21;
