ISO-10303-21;
HEADER;
FILE_DESCRIPTION (( 'STEP AP203' ),
    '1' );
FILE_NAME ('321778.step',
    '2021-12-02T12:57:38',
    ( '' ),
    ( '' ),
    'SwSTEP 2.0',
    'SolidWorks 2019',
    '' );
FILE_SCHEMA (( 'CONFIG_CONTROL_DESIGN' ));
ENDSEC;

DATA;
#1 = FACE_BOUND ( 'NONE', #13, .T. ) ;
#2 = CARTESIAN_POINT ( 'NONE',  ( -1.009096221231694275E-30, 3.539433087082026212E-32, -2.890166445987788091E-16 ) ) ;
#3 = CARTESIAN_POINT ( 'NONE',  ( 4.189777606611760026E-14, -1.469576158976823947E-15, 12.00000000000000000 ) ) ;
#4 = VERTEX_POINT ( 'NONE', #47 ) ;
#5 = APPROVAL_PERSON_ORGANIZATION ( #51, #55, #226 ) ;
#6 = CONICAL_SURFACE ( 'NONE', #97, 1.600000000000000977, 0.7853981633974512766 ) ;
#7 = PLANE ( 'NONE',  #86 ) ;
#8 =( NAMED_UNIT ( * ) SI_UNIT ( $, .STERADIAN. ) SOLID_ANGLE_UNIT ( ) );
#9 = MANIFOLD_SOLID_BREP ( 'Corps-Déplacer/Copier1[1]', #189 ) ;
#10 = EDGE_LOOP ( 'NONE', ( #195 ) ) ;
#11 = DATE_AND_TIME ( #15, #148 ) ;
#12 = APPROVAL ( #161, 'UNSPECIFIED' ) ;
#13 = EDGE_LOOP ( 'NONE', ( #84 ) ) ;
#14 = ORIENTED_EDGE ( 'NONE', *, *, #59, .T. ) ;
#15 = CALENDAR_DATE ( 2021, 2, 12 ) ;
#16 = APPROVAL ( #32, 'UNSPECIFIED' ) ;
#17 = DIRECTION ( 'NONE',  ( -3.491481338843133355E-15, 1.224646799147353207E-16, -1.000000000000000000 ) ) ;
#18 = DIRECTION ( 'NONE',  ( 4.275831445896958607E-31, 1.000000000000000000, 1.224646799147353207E-16 ) ) ;
#19 = PRODUCT ( '321778', '321778', '', ( #67 ) ) ;
#20 = DIRECTION ( 'NONE',  ( 4.186804226928728280E-31, 1.000000000000000000, 1.178480622266839891E-16 ) ) ;
#21 = FACE_OUTER_BOUND ( 'NONE', #162, .T. ) ;
#22 = AXIS2_PLACEMENT_3D ( 'NONE', #241, #17, #76 ) ;
#23 = CARTESIAN_POINT ( 'NONE',  ( -5.045481106158471377E-31, 1.769716543541013106E-32, -1.445083222993894046E-16 ) ) ;
#24 = VERTEX_POINT ( 'NONE', #62 ) ;
#25 = CC_DESIGN_APPROVAL ( #12, ( #80 ) ) ;
#26 = FACE_OUTER_BOUND ( 'NONE', #118, .T. ) ;
#27 = EDGE_LOOP ( 'NONE', ( #53 ) ) ;
#28 = PERSON_AND_ORGANIZATION_ROLE ( 'creator' ) ;
#29 = CC_DESIGN_PERSON_AND_ORGANIZATION_ASSIGNMENT ( #30, #54, ( #163 ) ) ;
#30 = PERSON_AND_ORGANIZATION ( #116, #109 ) ;
#31 = CIRCLE ( 'NONE', #236, 1.999999999999992228 ) ;
#32 = APPROVAL_STATUS ( 'not_yet_approved' ) ;
#33 = ADVANCED_FACE ( 'NONE', ( #26 ), #7, .F. ) ;
#34 = FACE_OUTER_BOUND ( 'NONE', #27, .T. ) ;
#35 = CARTESIAN_POINT ( 'NONE',  ( 2.793185071074506684E-13, -9.797174393178826052E-15, 80.00000000000000000 ) ) ;
#36 = CARTESIAN_POINT ( 'NONE',  ( 4.649381760125955199E-14, -1.630783595263017259E-15, 13.31635861375240815 ) ) ;
#37 = CARTESIAN_POINT ( 'NONE',  ( 2.779219145719134403E-13, -9.748188521212932624E-15, 79.60000000000000853 ) ) ;
#38 = CC_DESIGN_DATE_AND_TIME_ASSIGNMENT ( #11, #200, ( #80 ) ) ;
#39 = PLANE ( 'NONE',  #22 ) ;
#40 = VERTEX_POINT ( 'NONE', #186 ) ;
#41 = ADVANCED_FACE ( 'NONE', ( #222, #110 ), #231, .T. ) ;
#42 = APPROVAL_DATE_TIME ( #64, #55 ) ;
#43 = CIRCLE ( 'NONE', #52, 2.760000000000029985 ) ;
#44 = COORDINATED_UNIVERSAL_TIME_OFFSET ( 1, 0, .AHEAD. ) ;
#45 = PERSON_AND_ORGANIZATION_ROLE ( 'design_supplier' ) ;
#46 = CIRCLE ( 'NONE', #202, 2.760000000000029985 ) ;
#47 = CARTESIAN_POINT ( 'NONE',  ( 4.649381760125955199E-14, 1.999999999999990452, 13.31635861375240815 ) ) ;
#48 = EDGE_CURVE ( 'NONE', #209, #209, #197, .T. ) ;
#49 = EDGE_LOOP ( 'NONE', ( #191 ) ) ;
#50 = PERSON_AND_ORGANIZATION_ROLE ( 'classification_officer' ) ;
#51 = PERSON_AND_ORGANIZATION ( #116, #109 ) ;
#52 = AXIS2_PLACEMENT_3D ( 'NONE', #134, #79, #151 ) ;
#53 = ORIENTED_EDGE ( 'NONE', *, *, #139, .F. ) ;
#54 = PERSON_AND_ORGANIZATION_ROLE ( 'creator' ) ;
#55 = APPROVAL ( #204, 'UNSPECIFIED' ) ;
#56 = FACE_OUTER_BOUND ( 'NONE', #216, .T. ) ;
#57 = PLANE ( 'NONE',  #144 ) ;
#58 = CARTESIAN_POINT ( 'NONE',  ( 4.189777606611760026E-14, -1.469576158976823947E-15, 12.00000000000000000 ) ) ;
#59 = EDGE_CURVE ( 'NONE', #170, #170, #219, .T. ) ;
#60 = DIRECTION ( 'NONE',  ( -3.491481338843133355E-15, 1.224646799147353207E-16, -1.000000000000000000 ) ) ;
#61 = DIRECTION ( 'NONE',  ( 3.491481338843133355E-15, -1.224646799147353207E-16, 1.000000000000000000 ) ) ;
#62 = CARTESIAN_POINT ( 'NONE',  ( 2.779219145719134403E-13, 1.999999999999991340, 79.60000000000000853 ) ) ;
#63 = CC_DESIGN_DATE_AND_TIME_ASSIGNMENT ( #141, #217, ( #106 ) ) ;
#64 = DATE_AND_TIME ( #187, #126 ) ;
#65 = AXIS2_PLACEMENT_3D ( 'NONE', #37, #133, #225 ) ;
#66 = DIRECTION ( 'NONE',  ( 0.0000000000000000000, 0.0000000000000000000, 1.000000000000000000 ) ) ;
#67 = MECHANICAL_CONTEXT ( 'NONE', #99, 'mechanical' ) ;
#68 = CIRCLE ( 'NONE', #190, 1.600000000000000977 ) ;
#69 =( NAMED_UNIT ( * ) PLANE_ANGLE_UNIT ( ) SI_UNIT ( $, .RADIAN. ) );
#70 = PERSON_AND_ORGANIZATION ( #116, #109 ) ;
#71 = COORDINATED_UNIVERSAL_TIME_OFFSET ( 1, 0, .AHEAD. ) ;
#72 = DIRECTION ( 'NONE',  ( 0.0000000000000000000, 1.000000000000000000, 0.0000000000000000000 ) ) ;
#73 = DIRECTION ( 'NONE',  ( -3.491481338843133355E-15, 1.224646799147353207E-16, -1.000000000000000000 ) ) ;
#74 = CARTESIAN_POINT ( 'NONE',  ( 2.793185071074506684E-13, -9.797174393178826052E-15, 80.00000000000000000 ) ) ;
#75 = ADVANCED_FACE ( 'NONE', ( #56, #183 ), #129, .T. ) ;
#76 = DIRECTION ( 'NONE',  ( 4.275831445896958607E-31, 1.000000000000000000, 1.224646799147353207E-16 ) ) ;
#77 = AXIS2_PLACEMENT_3D ( 'NONE', #3, #147, #131 ) ;
#78 = CARTESIAN_POINT ( 'NONE',  ( 1.396592535537252159E-15, -4.898587196589408145E-17, 0.3999999999999996336 ) ) ;
#79 = DIRECTION ( 'NONE',  ( -3.491481338843133355E-15, 1.224646799147353207E-16, -1.000000000000000000 ) ) ;
#80 = PRODUCT_DEFINITION ( 'UNKNOWN', '', #163, #81 ) ;
#81 = DESIGN_CONTEXT ( 'detailed design', #238, 'design' ) ;
#82 = CC_DESIGN_PERSON_AND_ORGANIZATION_ASSIGNMENT ( #107, #45, ( #163 ) ) ;
#83 = DIRECTION ( 'NONE',  ( 1.000000000000000000, 0.0000000000000000000, 0.0000000000000000000 ) ) ;
#84 = ORIENTED_EDGE ( 'NONE', *, *, #167, .T. ) ;
#85 = CALENDAR_DATE ( 2021, 2, 12 ) ;
#86 = AXIS2_PLACEMENT_3D ( 'NONE', #221, #165, #203 ) ;
#87 = CARTESIAN_POINT ( 'NONE',  ( 0.0000000000000000000, 0.0000000000000000000, 0.0000000000000000000 ) ) ;
#88 = MANIFOLD_SOLID_BREP ( 'Corps-Déplacer/Copier1[2]', #208 ) ;
#89 = ORIENTED_EDGE ( 'NONE', *, *, #117, .F. ) ;
#90 = AXIS2_PLACEMENT_3D ( 'NONE', #185, #205, #150 ) ;
#91 = DIRECTION ( 'NONE',  ( -4.275831445896958607E-31, -1.000000000000000000, -1.224646799147353207E-16 ) ) ;
#92 = DIRECTION ( 'NONE',  ( -3.491481338843133355E-15, 1.224646799147353207E-16, -1.000000000000000000 ) ) ;
#93 = DIRECTION ( 'NONE',  ( 3.491481338843133355E-15, -1.224646799147353207E-16, 1.000000000000000000 ) ) ;
#94 = DIRECTION ( 'NONE',  ( 4.275831445896958607E-31, 1.000000000000000000, 1.224646799147353207E-16 ) ) ;
#95 = LOCAL_TIME ( 13, 57, 38.00000000000000000, #177 ) ;
#96 = DIRECTION ( 'NONE',  ( -3.491481338843133355E-15, 1.224646799147353207E-16, -1.000000000000000000 ) ) ;
#97 = AXIS2_PLACEMENT_3D ( 'NONE', #35, #73, #146 ) ;
#98 = AXIS2_PLACEMENT_3D ( 'NONE', #201, #61, #223 ) ;
#99 = APPLICATION_CONTEXT ( 'configuration controlled 3d designs of mechanical parts and assemblies' ) ;
#100 = EDGE_CURVE ( 'NONE', #40, #40, #46, .T. ) ;
#101 = ADVANCED_FACE ( 'NONE', ( #227 ), #243, .T. ) ;
#102 = ORIENTED_EDGE ( 'NONE', *, *, #117, .T. ) ;
#103 = ORIENTED_EDGE ( 'NONE', *, *, #233, .T. ) ;
#104 = COORDINATED_UNIVERSAL_TIME_OFFSET ( 1, 0, .AHEAD. ) ;
#105 = COORDINATED_UNIVERSAL_TIME_OFFSET ( 1, 0, .AHEAD. ) ;
#106 = SECURITY_CLASSIFICATION ( '', '', #215 ) ;
#107 = PERSON_AND_ORGANIZATION ( #116, #109 ) ;
#108 = CARTESIAN_POINT ( 'NONE',  ( 0.0000000000000000000, 0.0000000000000000000, 0.0000000000000000000 ) ) ;
#109 = ORGANIZATION ( 'UNSPECIFIED', 'UNSPECIFIED', '' ) ;
#110 = FACE_BOUND ( 'NONE', #214, .T. ) ;
#111 = DIRECTION ( 'NONE',  ( -3.491481338843133355E-15, 1.224646799147353207E-16, -1.000000000000000000 ) ) ;
#112 = DIRECTION ( 'NONE',  ( -3.491481338843133355E-15, 1.224646799147353207E-16, -1.000000000000000000 ) ) ;
#113 = FACE_OUTER_BOUND ( 'NONE', #218, .T. ) ;
#114 = CARTESIAN_POINT ( 'NONE',  ( 1.396592535537253342E-15, 2.760000000000029985, 0.3999999999999999667 ) ) ;
#115 = ADVANCED_BREP_SHAPE_REPRESENTATION ( '321778', ( #9, #88, #235 ), #199 ) ;
#116 = PERSON ( 'UNSPECIFIED', 'UNSPECIFIED', 'UNSPECIFIED', ('UNSPECIFIED'), ('UNSPECIFIED'), ('UNSPECIFIED') ) ;
#117 = EDGE_CURVE ( 'NONE', #24, #24, #172, .T. ) ;
#118 = EDGE_LOOP ( 'NONE', ( #103 ) ) ;
#119 = LOCAL_TIME ( 13, 57, 38.00000000000000000, #71 ) ;
#120 = APPLICATION_PROTOCOL_DEFINITION ( 'international standard', 'config_control_design', 1994, #238 ) ;
#121 = UNCERTAINTY_MEASURE_WITH_UNIT (LENGTH_MEASURE( 1.000000000000000082E-05 ), #154, 'distance_accuracy_value', 'NONE');
#122 = EDGE_LOOP ( 'NONE', ( #176 ) ) ;
#123 = DATE_AND_TIME ( #211, #95 ) ;
#124 = ADVANCED_FACE ( 'NONE', ( #21, #1 ), #6, .T. ) ;
#125 = AXIS2_PLACEMENT_3D ( 'NONE', #78, #96, #20 ) ;
#126 = LOCAL_TIME ( 13, 57, 38.00000000000000000, #44 ) ;
#127 = ORIENTED_EDGE ( 'NONE', *, *, #100, .T. ) ;
#128 = APPROVAL_ROLE ( '' ) ;
#129 = CYLINDRICAL_SURFACE ( 'NONE', #90, 2.760000000000029985 ) ;
#130 = CYLINDRICAL_SURFACE ( 'NONE', #212, 1.999999999999996669 ) ;
#131 = DIRECTION ( 'NONE',  ( 0.0000000000000000000, 1.000000000000000000, 0.0000000000000000000 ) ) ;
#132 = FACE_OUTER_BOUND ( 'NONE', #142, .T. ) ;
#133 = DIRECTION ( 'NONE',  ( -3.491481338843133355E-15, 1.224646799147353207E-16, -1.000000000000000000 ) ) ;
#134 = CARTESIAN_POINT ( 'NONE',  ( 4.189777606611760026E-14, -1.469576158976823947E-15, 12.00000000000000000 ) ) ;
#135 = CC_DESIGN_PERSON_AND_ORGANIZATION_ASSIGNMENT ( #234, #179, ( #19 ) ) ;
#136 = VERTEX_POINT ( 'NONE', #213 ) ;
#137 = CC_DESIGN_APPROVAL ( #55, ( #106 ) ) ;
#138 = ORIENTED_EDGE ( 'NONE', *, *, #233, .F. ) ;
#139 = EDGE_CURVE ( 'NONE', #4, #4, #31, .T. ) ;
#140 = EDGE_LOOP ( 'NONE', ( #14 ) ) ;
#141 = DATE_AND_TIME ( #175, #220 ) ;
#142 = EDGE_LOOP ( 'NONE', ( #160 ) ) ;
#143 = APPROVAL_DATE_TIME ( #157, #16 ) ;
#144 = AXIS2_PLACEMENT_3D ( 'NONE', #23, #60, #18 ) ;
#145 = DIRECTION ( 'NONE',  ( 0.0000000000000000000, 1.000000000000000000, 0.0000000000000000000 ) ) ;
#146 = DIRECTION ( 'NONE',  ( 0.0000000000000000000, 1.000000000000000000, 0.0000000000000000000 ) ) ;
#147 = DIRECTION ( 'NONE',  ( -3.491481338843133355E-15, 1.224646799147353207E-16, -1.000000000000000000 ) ) ;
#148 = LOCAL_TIME ( 13, 57, 38.00000000000000000, #104 ) ;
#149 = FACE_OUTER_BOUND ( 'NONE', #140, .T. ) ;
#150 = DIRECTION ( 'NONE',  ( 4.275831445896958607E-31, 1.000000000000000000, 1.224646799147353207E-16 ) ) ;
#151 = DIRECTION ( 'NONE',  ( 0.0000000000000000000, 1.000000000000000000, 0.0000000000000000000 ) ) ;
#152 = AXIS2_PLACEMENT_3D ( 'NONE', #164, #93, #91 ) ;
#153 = CC_DESIGN_SECURITY_CLASSIFICATION ( #106, ( #163 ) ) ;
#154 =( LENGTH_UNIT ( ) NAMED_UNIT ( * ) SI_UNIT ( .MILLI., .METRE. ) );
#155 = ORIENTED_EDGE ( 'NONE', *, *, #139, .T. ) ;
#156 = APPLICATION_PROTOCOL_DEFINITION ( 'international standard', 'config_control_design', 1994, #99 ) ;
#157 = DATE_AND_TIME ( #85, #119 ) ;
#158 = CC_DESIGN_PERSON_AND_ORGANIZATION_ASSIGNMENT ( #70, #50, ( #106 ) ) ;
#159 = PERSON_AND_ORGANIZATION ( #116, #109 ) ;
#160 = ORIENTED_EDGE ( 'NONE', *, *, #167, .F. ) ;
#161 = APPROVAL_STATUS ( 'not_yet_approved' ) ;
#162 = EDGE_LOOP ( 'NONE', ( #89 ) ) ;
#163 = PRODUCT_DEFINITION_FORMATION_WITH_SPECIFIED_SOURCE ( 'ANY', '', #19, .NOT_KNOWN. ) ;
#164 = CARTESIAN_POINT ( 'NONE',  ( -1.009096221231694275E-30, 3.539433087082026212E-32, -2.890166445987788091E-16 ) ) ;
#165 = DIRECTION ( 'NONE',  ( 3.491481338843133355E-15, -1.224646799147353207E-16, 1.000000000000000000 ) ) ;
#166 = FACE_OUTER_BOUND ( 'NONE', #173, .T. ) ;
#167 = EDGE_CURVE ( 'NONE', #192, #192, #68, .T. ) ;
#168 = CONICAL_SURFACE ( 'NONE', #77, 2.760000000000029985, 0.5235987755983000369 ) ;
#169 = DIRECTION ( 'NONE',  ( -3.491481338843133355E-15, 1.224646799147353207E-16, -1.000000000000000000 ) ) ;
#170 = VERTEX_POINT ( 'NONE', #229 ) ;
#171 = ADVANCED_FACE ( 'NONE', ( #182, #166 ), #168, .T. ) ;
#172 = CIRCLE ( 'NONE', #65, 2.000000000000000888 ) ;
#173 = EDGE_LOOP ( 'NONE', ( #138 ) ) ;
#174 = ADVANCED_FACE ( 'NONE', ( #132 ), #39, .F. ) ;
#175 = CALENDAR_DATE ( 2021, 2, 12 ) ;
#176 = ORIENTED_EDGE ( 'NONE', *, *, #48, .F. ) ;
#177 = COORDINATED_UNIVERSAL_TIME_OFFSET ( 1, 0, .AHEAD. ) ;
#178 = EDGE_LOOP ( 'NONE', ( #155 ) ) ;
#179 = PERSON_AND_ORGANIZATION_ROLE ( 'design_owner' ) ;
#180 = DIRECTION ( 'NONE',  ( -3.491481338843133355E-15, 1.224646799147353207E-16, -1.000000000000000000 ) ) ;
#181 = DIRECTION ( 'NONE',  ( 4.275831445896958607E-31, 1.000000000000000000, 1.224646799147353207E-16 ) ) ;
#182 = FACE_BOUND ( 'NONE', #178, .T. ) ;
#183 = FACE_OUTER_BOUND ( 'NONE', #122, .T. ) ;
#184 = APPROVAL_PERSON_ORGANIZATION ( #194, #12, #128 ) ;
#185 = CARTESIAN_POINT ( 'NONE',  ( 0.0000000000000000000, 0.0000000000000000000, 0.0000000000000000000 ) ) ;
#186 = CARTESIAN_POINT ( 'NONE',  ( 4.189777606611760026E-14, 2.760000000000028653, 12.00000000000000000 ) ) ;
#187 = CALENDAR_DATE ( 2021, 2, 12 ) ;
#188 = SHAPE_DEFINITION_REPRESENTATION ( #224, #115 ) ;
#189 = CLOSED_SHELL ( 'NONE', ( #33, #171, #207, #124, #174 ) ) ;
#190 = AXIS2_PLACEMENT_3D ( 'NONE', #74, #112, #72 ) ;
#191 = ORIENTED_EDGE ( 'NONE', *, *, #48, .T. ) ;
#192 = VERTEX_POINT ( 'NONE', #198 ) ;
#193 = ADVANCED_FACE ( 'NONE', ( #149 ), #57, .T. ) ;
#194 = PERSON_AND_ORGANIZATION ( #116, #109 ) ;
#195 = ORIENTED_EDGE ( 'NONE', *, *, #100, .F. ) ;
#196 = APPROVAL_DATE_TIME ( #123, #12 ) ;
#197 = CIRCLE ( 'NONE', #125, 2.760000000000029985 ) ;
#198 = CARTESIAN_POINT ( 'NONE',  ( 2.793185071074506684E-13, 1.599999999999991207, 80.00000000000000000 ) ) ;
#199 =( GEOMETRIC_REPRESENTATION_CONTEXT ( 3 ) GLOBAL_UNCERTAINTY_ASSIGNED_CONTEXT ( ( #121 ) ) GLOBAL_UNIT_ASSIGNED_CONTEXT ( ( #154, #69, #8 ) ) REPRESENTATION_CONTEXT ( 'NONE', 'WORKASPACE' ) );
#200 = DATE_TIME_ROLE ( 'creation_date' ) ;
#201 = CARTESIAN_POINT ( 'NONE',  ( 4.189777606611760026E-14, 2.069668500073384080E-32, 12.00000000000000000 ) ) ;
#202 = AXIS2_PLACEMENT_3D ( 'NONE', #58, #111, #206 ) ;
#203 = DIRECTION ( 'NONE',  ( -4.275831445896958607E-31, -1.000000000000000000, -1.224646799147353207E-16 ) ) ;
#204 = APPROVAL_STATUS ( 'not_yet_approved' ) ;
#205 = DIRECTION ( 'NONE',  ( -3.491481338843133355E-15, 1.224646799147353207E-16, -1.000000000000000000 ) ) ;
#206 = DIRECTION ( 'NONE',  ( 0.0000000000000000000, 1.000000000000000000, 0.0000000000000000000 ) ) ;
#207 = ADVANCED_FACE ( 'NONE', ( #34, #113 ), #130, .T. ) ;
#208 = CLOSED_SHELL ( 'NONE', ( #75, #101, #193, #41 ) ) ;
#209 = VERTEX_POINT ( 'NONE', #114 ) ;
#210 = APPROVAL_PERSON_ORGANIZATION ( #237, #16, #240 ) ;
#211 = CALENDAR_DATE ( 2021, 2, 12 ) ;
#212 = AXIS2_PLACEMENT_3D ( 'NONE', #108, #180, #181 ) ;
#213 = CARTESIAN_POINT ( 'NONE',  ( 4.189777606611760026E-14, 2.760000000000028653, 12.00000000000000000 ) ) ;
#214 = EDGE_LOOP ( 'NONE', ( #239 ) ) ;
#215 = SECURITY_CLASSIFICATION_LEVEL ( 'unclassified' ) ;
#216 = EDGE_LOOP ( 'NONE', ( #127 ) ) ;
#217 = DATE_TIME_ROLE ( 'classification_date' ) ;
#218 = EDGE_LOOP ( 'NONE', ( #102 ) ) ;
#219 = CIRCLE ( 'NONE', #242, 2.360000000000028297 ) ;
#220 = LOCAL_TIME ( 13, 57, 38.00000000000000000, #105 ) ;
#221 = CARTESIAN_POINT ( 'NONE',  ( 4.189777606611760026E-14, 2.069668500073384080E-32, 12.00000000000000000 ) ) ;
#222 = FACE_OUTER_BOUND ( 'NONE', #49, .T. ) ;
#223 = DIRECTION ( 'NONE',  ( -4.275831445896958607E-31, -1.000000000000000000, -1.224646799147353207E-16 ) ) ;
#224 = PRODUCT_DEFINITION_SHAPE ( 'NONE', 'NONE',  #80 ) ;
#225 = DIRECTION ( 'NONE',  ( 0.0000000000000000000, 1.000000000000000000, 0.0000000000000000000 ) ) ;
#226 = APPROVAL_ROLE ( '' ) ;
#227 = FACE_OUTER_BOUND ( 'NONE', #10, .T. ) ;
#228 = CC_DESIGN_PERSON_AND_ORGANIZATION_ASSIGNMENT ( #159, #28, ( #80 ) ) ;
#229 = CARTESIAN_POINT ( 'NONE',  ( 0.0000000000000000000, 2.360000000000028297, 0.0000000000000000000 ) ) ;
#230 = PRODUCT_RELATED_PRODUCT_CATEGORY ( 'detail', '', ( #19 ) ) ;
#231 = CONICAL_SURFACE ( 'NONE', #152, 2.360000000000028297, 0.7853981633974502774 ) ;
#232 = CC_DESIGN_APPROVAL ( #16, ( #163 ) ) ;
#233 = EDGE_CURVE ( 'NONE', #136, #136, #43, .T. ) ;
#234 = PERSON_AND_ORGANIZATION ( #116, #109 ) ;
#235 = AXIS2_PLACEMENT_3D ( 'NONE', #87, #66, #83 ) ;
#236 = AXIS2_PLACEMENT_3D ( 'NONE', #36, #169, #145 ) ;
#237 = PERSON_AND_ORGANIZATION ( #116, #109 ) ;
#238 = APPLICATION_CONTEXT ( 'configuration controlled 3d designs of mechanical parts and assemblies' ) ;
#239 = ORIENTED_EDGE ( 'NONE', *, *, #59, .F. ) ;
#240 = APPROVAL_ROLE ( '' ) ;
#241 = CARTESIAN_POINT ( 'NONE',  ( 2.793185071074506684E-13, 1.199807826129472128E-32, 80.00000000000000000 ) ) ;
#242 = AXIS2_PLACEMENT_3D ( 'NONE', #2, #92, #94 ) ;
#243 = PLANE ( 'NONE',  #98 ) ;
ENDSEC;
END-ISO-10303-21;
