ISO-10303-21;
HEADER;
FILE_DESCRIPTION (( 'STEP AP203' ),
    '1' );
FILE_NAME ('321777.step',
    '2021-12-02T12:57:37',
    ( '' ),
    ( '' ),
    'SwSTEP 2.0',
    'SolidWorks 2019',
    '' );
FILE_SCHEMA (( 'CONFIG_CONTROL_DESIGN' ));
ENDSEC;

DATA;
#1 = DIRECTION ( 'NONE',  ( 0.0000000000000000000, 0.0000000000000000000, 1.000000000000000000 ) ) ;
#2 = ADVANCED_FACE ( 'NONE', ( #210 ), #44, .T. ) ;
#3 = DATE_AND_TIME ( #186, #65 ) ;
#4 = PERSON_AND_ORGANIZATION ( #14, #159 ) ;
#5 = ORIENTED_EDGE ( 'NONE', *, *, #58, .F. ) ;
#6 = SECURITY_CLASSIFICATION ( '', '', #24 ) ;
#7 = CARTESIAN_POINT ( 'NONE',  ( 4.189777606611760026E-14, 2.065919100616729409E-32, 12.00000000000000000 ) ) ;
#8 = PLANE ( 'NONE',  #225 ) ;
#9 = APPROVAL ( #222, 'UNSPECIFIED' ) ;
#10 = CIRCLE ( 'NONE', #45, 2.000000000000000888 ) ;
#11 = DIRECTION ( 'NONE',  ( -4.275831445896958607E-31, -1.000000000000000000, -1.224646799147353207E-16 ) ) ;
#12 = FACE_OUTER_BOUND ( 'NONE', #25, .T. ) ;
#13 = FACE_OUTER_BOUND ( 'NONE', #231, .T. ) ;
#14 = PERSON ( 'UNSPECIFIED', 'UNSPECIFIED', 'UNSPECIFIED', ('UNSPECIFIED'), ('UNSPECIFIED'), ('UNSPECIFIED') ) ;
#15 = VERTEX_POINT ( 'NONE', #172 ) ;
#16 = AXIS2_PLACEMENT_3D ( 'NONE', #126, #118, #34 ) ;
#17 = PRODUCT_DEFINITION_FORMATION_WITH_SPECIFIED_SOURCE ( 'ANY', '', #18, .NOT_KNOWN. ) ;
#18 = PRODUCT ( '321777', '321777', '', ( #203 ) ) ;
#19 = APPROVAL_ROLE ( '' ) ;
#20 = VERTEX_POINT ( 'NONE', #61 ) ;
#21 = CONICAL_SURFACE ( 'NONE', #158, 1.600000000000000977, 0.7853981633974512766 ) ;
#22 = DIRECTION ( 'NONE',  ( 1.000000000000000000, 0.0000000000000000000, 0.0000000000000000000 ) ) ;
#23 = CC_DESIGN_PERSON_AND_ORGANIZATION_ASSIGNMENT ( #224, #130, ( #18 ) ) ;
#24 = SECURITY_CLASSIFICATION_LEVEL ( 'unclassified' ) ;
#25 = EDGE_LOOP ( 'NONE', ( #28 ) ) ;
#26 = ORIENTED_EDGE ( 'NONE', *, *, #218, .T. ) ;
#27 = EDGE_LOOP ( 'NONE', ( #212 ) ) ;
#28 = ORIENTED_EDGE ( 'NONE', *, *, #110, .F. ) ;
#29 = DIRECTION ( 'NONE',  ( -3.491481338843133355E-15, 1.224646799147353207E-16, -1.000000000000000000 ) ) ;
#30 = CARTESIAN_POINT ( 'NONE',  ( 0.0000000000000000000, 0.0000000000000000000, 0.0000000000000000000 ) ) ;
#31 = DIRECTION ( 'NONE',  ( -4.275831445896958607E-31, -1.000000000000000000, -1.224646799147353207E-16 ) ) ;
#32 = CIRCLE ( 'NONE', #88, 2.755000000000030091 ) ;
#33 = CC_DESIGN_APPROVAL ( #194, ( #95 ) ) ;
#34 = DIRECTION ( 'NONE',  ( 4.275831445896958607E-31, 1.000000000000000000, 1.224646799147353207E-16 ) ) ;
#35 = DIRECTION ( 'NONE',  ( 0.0000000000000000000, 1.000000000000000000, 0.0000000000000000000 ) ) ;
#36 = DATE_TIME_ROLE ( 'creation_date' ) ;
#37 = COORDINATED_UNIVERSAL_TIME_OFFSET ( 1, 0, .AHEAD. ) ;
#38 = ADVANCED_FACE ( 'NONE', ( #202, #89 ), #183, .T. ) ;
#39 = CONICAL_SURFACE ( 'NONE', #237, 2.755000000000030091, 0.5235987755983003700 ) ;
#40 = LOCAL_TIME ( 13, 57, 37.00000000000000000, #152 ) ;
#41 = PERSON_AND_ORGANIZATION_ROLE ( 'design_supplier' ) ;
#42 = EDGE_LOOP ( 'NONE', ( #155 ) ) ;
#43 = UNCERTAINTY_MEASURE_WITH_UNIT (LENGTH_MEASURE( 1.000000000000000082E-05 ), #129, 'distance_accuracy_value', 'NONE');
#44 = PLANE ( 'NONE',  #120 ) ;
#45 = AXIS2_PLACEMENT_3D ( 'NONE', #199, #29, #220 ) ;
#46 = CC_DESIGN_PERSON_AND_ORGANIZATION_ASSIGNMENT ( #189, #134, ( #17 ) ) ;
#47 = ORIENTED_EDGE ( 'NONE', *, *, #100, .F. ) ;
#48 = FACE_OUTER_BOUND ( 'NONE', #64, .T. ) ;
#49 = APPROVAL_ROLE ( '' ) ;
#50 = ADVANCED_FACE ( 'NONE', ( #140 ), #163, .T. ) ;
#51 = CC_DESIGN_SECURITY_CLASSIFICATION ( #6, ( #17 ) ) ;
#52 = FACE_BOUND ( 'NONE', #234, .T. ) ;
#53 = DIRECTION ( 'NONE',  ( -3.491481338843133355E-15, 1.224646799147353207E-16, -1.000000000000000000 ) ) ;
#54 = APPROVAL_STATUS ( 'not_yet_approved' ) ;
#55 = DIRECTION ( 'NONE',  ( 4.275831445896958607E-31, 1.000000000000000000, 1.224646799147353207E-16 ) ) ;
#56 = CARTESIAN_POINT ( 'NONE',  ( 2.793185071074506684E-13, -9.797174393178826052E-15, 80.00000000000000000 ) ) ;
#57 = CARTESIAN_POINT ( 'NONE',  ( 4.189777606611760026E-14, 2.755000000000028759, 12.00000000000000000 ) ) ;
#58 = EDGE_CURVE ( 'NONE', #20, #20, #153, .T. ) ;
#59 =( NAMED_UNIT ( * ) SI_UNIT ( $, .STERADIAN. ) SOLID_ANGLE_UNIT ( ) );
#60 = COORDINATED_UNIVERSAL_TIME_OFFSET ( 1, 0, .AHEAD. ) ;
#61 = CARTESIAN_POINT ( 'NONE',  ( 2.793185071074506684E-13, 1.599999999999991207, 80.00000000000000000 ) ) ;
#62 = DATE_AND_TIME ( #229, #40 ) ;
#63 = ORIENTED_EDGE ( 'NONE', *, *, #100, .T. ) ;
#64 = EDGE_LOOP ( 'NONE', ( #47 ) ) ;
#65 = LOCAL_TIME ( 13, 57, 37.00000000000000000, #37 ) ;
#66 = DIRECTION ( 'NONE',  ( -3.491481338843133355E-15, 1.224646799147353207E-16, -1.000000000000000000 ) ) ;
#67 = CARTESIAN_POINT ( 'NONE',  ( 0.0000000000000000000, 0.0000000000000000000, 0.0000000000000000000 ) ) ;
#68 = CC_DESIGN_APPROVAL ( #9, ( #17 ) ) ;
#69 = DIRECTION ( 'NONE',  ( 3.491481338843133355E-15, -1.224646799147353207E-16, 1.000000000000000000 ) ) ;
#70 = DIRECTION ( 'NONE',  ( -3.491481338843133355E-15, 1.224646799147353207E-16, -1.000000000000000000 ) ) ;
#71 = CARTESIAN_POINT ( 'NONE',  ( 4.646358048589677695E-14, -1.629723020024292412E-15, 13.30769835971456416 ) ) ;
#72 = CARTESIAN_POINT ( 'NONE',  ( 4.189777606611760026E-14, 2.755000000000028759, 12.00000000000000000 ) ) ;
#73 = PERSON_AND_ORGANIZATION ( #14, #159 ) ;
#74 = CC_DESIGN_DATE_AND_TIME_ASSIGNMENT ( #77, #36, ( #95 ) ) ;
#75 = CARTESIAN_POINT ( 'NONE',  ( 4.646358048589677695E-14, 1.999999999999990452, 13.30769835971456416 ) ) ;
#76 = APPLICATION_CONTEXT ( 'configuration controlled 3d designs of mechanical parts and assemblies' ) ;
#77 = DATE_AND_TIME ( #206, #196 ) ;
#78 = PERSON_AND_ORGANIZATION_ROLE ( 'classification_officer' ) ;
#79 = ORIENTED_EDGE ( 'NONE', *, *, #145, .T. ) ;
#80 = CIRCLE ( 'NONE', #179, 2.355000000000028404 ) ;
#81 = EDGE_LOOP ( 'NONE', ( #176 ) ) ;
#82 = ADVANCED_FACE ( 'NONE', ( #52, #91 ), #39, .T. ) ;
#83 = AXIS2_PLACEMENT_3D ( 'NONE', #30, #180, #241 ) ;
#84 = ADVANCED_BREP_SHAPE_REPRESENTATION ( '321777', ( #178, #92, #232 ), #188 ) ;
#85 = APPROVAL_PERSON_ORGANIZATION ( #133, #194, #19 ) ;
#86 = DIRECTION ( 'NONE',  ( -3.491481338843133355E-15, 1.224646799147353207E-16, -1.000000000000000000 ) ) ;
#87 = DIRECTION ( 'NONE',  ( -3.491481338843133355E-15, 1.224646799147353207E-16, -1.000000000000000000 ) ) ;
#88 = AXIS2_PLACEMENT_3D ( 'NONE', #197, #87, #181 ) ;
#89 = FACE_BOUND ( 'NONE', #81, .T. ) ;
#90 = CARTESIAN_POINT ( 'NONE',  ( 4.189777606611760026E-14, -1.469576158976823947E-15, 12.00000000000000000 ) ) ;
#91 = FACE_OUTER_BOUND ( 'NONE', #27, .T. ) ;
#92 = MANIFOLD_SOLID_BREP ( 'Corps-Déplacer/Copier1[2]', #211 ) ;
#93 = CC_DESIGN_DATE_AND_TIME_ASSIGNMENT ( #62, #208, ( #6 ) ) ;
#94 = VERTEX_POINT ( 'NONE', #75 ) ;
#95 = PRODUCT_DEFINITION ( 'UNKNOWN', '', #17, #132 ) ;
#96 = APPROVAL_STATUS ( 'not_yet_approved' ) ;
#97 = AXIS2_PLACEMENT_3D ( 'NONE', #103, #86, #182 ) ;
#98 = PERSON_AND_ORGANIZATION_ROLE ( 'creator' ) ;
#99 = EDGE_LOOP ( 'NONE', ( #190 ) ) ;
#100 = EDGE_CURVE ( 'NONE', #94, #94, #187, .T. ) ;
#101 = PRODUCT_RELATED_PRODUCT_CATEGORY ( 'detail', '', ( #18 ) ) ;
#102 = LOCAL_TIME ( 13, 57, 37.00000000000000000, #198 ) ;
#103 = CARTESIAN_POINT ( 'NONE',  ( 4.189777606611760026E-14, -1.469576158976823947E-15, 12.00000000000000000 ) ) ;
#104 = FACE_OUTER_BOUND ( 'NONE', #136, .T. ) ;
#105 = FACE_OUTER_BOUND ( 'NONE', #135, .T. ) ;
#106 = ADVANCED_FACE ( 'NONE', ( #13 ), #144, .F. ) ;
#107 = DIRECTION ( 'NONE',  ( -3.491481338843133355E-15, 1.224646799147353207E-16, -1.000000000000000000 ) ) ;
#108 = CARTESIAN_POINT ( 'NONE',  ( -1.006958305508745979E-30, 3.531934288168717964E-32, -2.884043211992051709E-16 ) ) ;
#109 = DATE_AND_TIME ( #119, #102 ) ;
#110 = EDGE_CURVE ( 'NONE', #128, #128, #174, .T. ) ;
#111 = DIRECTION ( 'NONE',  ( 0.0000000000000000000, 1.000000000000000000, 0.0000000000000000000 ) ) ;
#112 = CARTESIAN_POINT ( 'NONE',  ( 2.779219145719134403E-13, 1.999999999999991340, 79.60000000000000853 ) ) ;
#113 =( NAMED_UNIT ( * ) PLANE_ANGLE_UNIT ( ) SI_UNIT ( $, .RADIAN. ) );
#114 = CARTESIAN_POINT ( 'NONE',  ( 1.396592535537252553E-15, 2.755000000000030091, 0.3999999999999997446 ) ) ;
#115 = PERSON_AND_ORGANIZATION ( #14, #159 ) ;
#116 = ORIENTED_EDGE ( 'NONE', *, *, #213, .F. ) ;
#117 = EDGE_LOOP ( 'NONE', ( #156 ) ) ;
#118 = DIRECTION ( 'NONE',  ( -3.491481338843133355E-15, 1.224646799147353207E-16, -1.000000000000000000 ) ) ;
#119 = CALENDAR_DATE ( 2021, 2, 12 ) ;
#120 = AXIS2_PLACEMENT_3D ( 'NONE', #141, #219, #31 ) ;
#121 = DIRECTION ( 'NONE',  ( 4.194402782694478801E-31, 1.000000000000000000, 1.180619425574039140E-16 ) ) ;
#122 = EDGE_CURVE ( 'NONE', #15, #15, #80, .T. ) ;
#123 = CYLINDRICAL_SURFACE ( 'NONE', #83, 1.999999999999996669 ) ;
#124 = FACE_OUTER_BOUND ( 'NONE', #191, .T. ) ;
#125 = LOCAL_TIME ( 13, 57, 37.00000000000000000, #228 ) ;
#126 = CARTESIAN_POINT ( 'NONE',  ( -5.034791527543729895E-31, 1.765967144084358982E-32, -1.442021605996025854E-16 ) ) ;
#127 = ADVANCED_FACE ( 'NONE', ( #214, #12 ), #240, .T. ) ;
#128 = VERTEX_POINT ( 'NONE', #114 ) ;
#129 =( LENGTH_UNIT ( ) NAMED_UNIT ( * ) SI_UNIT ( .MILLI., .METRE. ) );
#130 = PERSON_AND_ORGANIZATION_ROLE ( 'design_owner' ) ;
#131 = APPROVAL_DATE_TIME ( #3, #194 ) ;
#132 = DESIGN_CONTEXT ( 'detailed design', #76, 'design' ) ;
#133 = PERSON_AND_ORGANIZATION ( #14, #159 ) ;
#134 = PERSON_AND_ORGANIZATION_ROLE ( 'creator' ) ;
#135 = EDGE_LOOP ( 'NONE', ( #137 ) ) ;
#136 = EDGE_LOOP ( 'NONE', ( #26 ) ) ;
#137 = ORIENTED_EDGE ( 'NONE', *, *, #213, .T. ) ;
#138 = ADVANCED_FACE ( 'NONE', ( #48, #105 ), #123, .T. ) ;
#139 = AXIS2_PLACEMENT_3D ( 'NONE', #71, #161, #184 ) ;
#140 = FACE_OUTER_BOUND ( 'NONE', #117, .T. ) ;
#141 = CARTESIAN_POINT ( 'NONE',  ( 4.189777606611760026E-14, 2.065919100616729409E-32, 12.00000000000000000 ) ) ;
#142 = DIRECTION ( 'NONE',  ( 3.491481338843133355E-15, -1.224646799147353207E-16, 1.000000000000000000 ) ) ;
#143 = CARTESIAN_POINT ( 'NONE',  ( -1.006958305508745979E-30, 3.531934288168717964E-32, -2.884043211992051709E-16 ) ) ;
#144 = PLANE ( 'NONE',  #201 ) ;
#145 = EDGE_CURVE ( 'NONE', #170, #170, #32, .T. ) ;
#146 = APPROVAL_DATE_TIME ( #223, #9 ) ;
#147 = APPROVAL_ROLE ( '' ) ;
#148 = AXIS2_PLACEMENT_3D ( 'NONE', #238, #195, #121 ) ;
#149 = APPROVAL ( #54, 'UNSPECIFIED' ) ;
#150 = APPLICATION_PROTOCOL_DEFINITION ( 'international standard', 'config_control_design', 1994, #76 ) ;
#151 = APPLICATION_PROTOCOL_DEFINITION ( 'international standard', 'config_control_design', 1994, #160 ) ;
#152 = COORDINATED_UNIVERSAL_TIME_OFFSET ( 1, 0, .AHEAD. ) ;
#153 = CIRCLE ( 'NONE', #221, 1.600000000000000977 ) ;
#154 = CC_DESIGN_APPROVAL ( #149, ( #6 ) ) ;
#155 = ORIENTED_EDGE ( 'NONE', *, *, #110, .T. ) ;
#156 = ORIENTED_EDGE ( 'NONE', *, *, #122, .T. ) ;
#157 = ADVANCED_FACE ( 'NONE', ( #104 ), #8, .F. ) ;
#158 = AXIS2_PLACEMENT_3D ( 'NONE', #56, #169, #111 ) ;
#159 = ORGANIZATION ( 'UNSPECIFIED', 'UNSPECIFIED', '' ) ;
#160 = APPLICATION_CONTEXT ( 'configuration controlled 3d designs of mechanical parts and assemblies' ) ;
#161 = DIRECTION ( 'NONE',  ( -3.491481338843133355E-15, 1.224646799147353207E-16, -1.000000000000000000 ) ) ;
#162 = CC_DESIGN_PERSON_AND_ORGANIZATION_ASSIGNMENT ( #173, #41, ( #17 ) ) ;
#163 = PLANE ( 'NONE',  #16 ) ;
#164 = APPROVAL_PERSON_ORGANIZATION ( #73, #9, #147 ) ;
#165 = DIRECTION ( 'NONE',  ( 0.0000000000000000000, 1.000000000000000000, 0.0000000000000000000 ) ) ;
#166 = DIRECTION ( 'NONE',  ( 4.275831445896958607E-31, 1.000000000000000000, 1.224646799147353207E-16 ) ) ;
#167 = DIRECTION ( 'NONE',  ( 4.275831445896958607E-31, 1.000000000000000000, 1.224646799147353207E-16 ) ) ;
#168 = CARTESIAN_POINT ( 'NONE',  ( 0.0000000000000000000, 0.0000000000000000000, 0.0000000000000000000 ) ) ;
#169 = DIRECTION ( 'NONE',  ( -3.491481338843133355E-15, 1.224646799147353207E-16, -1.000000000000000000 ) ) ;
#170 = VERTEX_POINT ( 'NONE', #72 ) ;
#171 = CIRCLE ( 'NONE', #97, 2.755000000000030091 ) ;
#172 = CARTESIAN_POINT ( 'NONE',  ( 0.0000000000000000000, 2.355000000000028404, 0.0000000000000000000 ) ) ;
#173 = PERSON_AND_ORGANIZATION ( #14, #159 ) ;
#174 = CIRCLE ( 'NONE', #148, 2.755000000000030091 ) ;
#175 = EDGE_LOOP ( 'NONE', ( #79 ) ) ;
#176 = ORIENTED_EDGE ( 'NONE', *, *, #122, .F. ) ;
#177 = CC_DESIGN_PERSON_AND_ORGANIZATION_ASSIGNMENT ( #4, #78, ( #6 ) ) ;
#178 = MANIFOLD_SOLID_BREP ( 'Corps-Déplacer/Copier1[1]', #207 ) ;
#179 = AXIS2_PLACEMENT_3D ( 'NONE', #143, #66, #55 ) ;
#180 = DIRECTION ( 'NONE',  ( -3.491481338843133355E-15, 1.224646799147353207E-16, -1.000000000000000000 ) ) ;
#181 = DIRECTION ( 'NONE',  ( 0.0000000000000000000, 1.000000000000000000, 0.0000000000000000000 ) ) ;
#182 = DIRECTION ( 'NONE',  ( 0.0000000000000000000, 1.000000000000000000, 0.0000000000000000000 ) ) ;
#183 = CONICAL_SURFACE ( 'NONE', #243, 2.355000000000028404, 0.7853981633974504994 ) ;
#184 = DIRECTION ( 'NONE',  ( 0.0000000000000000000, 1.000000000000000000, 0.0000000000000000000 ) ) ;
#185 = CARTESIAN_POINT ( 'NONE',  ( 2.793185071074506684E-13, -9.797174393178826052E-15, 80.00000000000000000 ) ) ;
#186 = CALENDAR_DATE ( 2021, 2, 12 ) ;
#187 = CIRCLE ( 'NONE', #139, 1.999999999999992228 ) ;
#188 =( GEOMETRIC_REPRESENTATION_CONTEXT ( 3 ) GLOBAL_UNCERTAINTY_ASSIGNED_CONTEXT ( ( #43 ) ) GLOBAL_UNIT_ASSIGNED_CONTEXT ( ( #129, #113, #59 ) ) REPRESENTATION_CONTEXT ( 'NONE', 'WORKASPACE' ) );
#189 = PERSON_AND_ORGANIZATION ( #14, #159 ) ;
#190 = ORIENTED_EDGE ( 'NONE', *, *, #58, .T. ) ;
#191 = EDGE_LOOP ( 'NONE', ( #116 ) ) ;
#192 = AXIS2_PLACEMENT_3D ( 'NONE', #67, #53, #166 ) ;
#193 = EDGE_LOOP ( 'NONE', ( #209 ) ) ;
#194 = APPROVAL ( #96, 'UNSPECIFIED' ) ;
#195 = DIRECTION ( 'NONE',  ( -3.491481338843133355E-15, 1.224646799147353207E-16, -1.000000000000000000 ) ) ;
#196 = LOCAL_TIME ( 13, 57, 37.00000000000000000, #60 ) ;
#197 = CARTESIAN_POINT ( 'NONE',  ( 4.189777606611760026E-14, -1.469576158976823947E-15, 12.00000000000000000 ) ) ;
#198 = COORDINATED_UNIVERSAL_TIME_OFFSET ( 1, 0, .AHEAD. ) ;
#199 = CARTESIAN_POINT ( 'NONE',  ( 2.779219145719134403E-13, -9.748188521212932624E-15, 79.60000000000000853 ) ) ;
#200 = FACE_BOUND ( 'NONE', #99, .T. ) ;
#201 = AXIS2_PLACEMENT_3D ( 'NONE', #236, #70, #167 ) ;
#202 = FACE_OUTER_BOUND ( 'NONE', #42, .T. ) ;
#203 = MECHANICAL_CONTEXT ( 'NONE', #160, 'mechanical' ) ;
#204 = VERTEX_POINT ( 'NONE', #112 ) ;
#205 = VERTEX_POINT ( 'NONE', #57 ) ;
#206 = CALENDAR_DATE ( 2021, 2, 12 ) ;
#207 = CLOSED_SHELL ( 'NONE', ( #157, #82, #138, #239, #106 ) ) ;
#208 = DATE_TIME_ROLE ( 'classification_date' ) ;
#209 = ORIENTED_EDGE ( 'NONE', *, *, #145, .F. ) ;
#210 = FACE_OUTER_BOUND ( 'NONE', #193, .T. ) ;
#211 = CLOSED_SHELL ( 'NONE', ( #127, #2, #50, #38 ) ) ;
#212 = ORIENTED_EDGE ( 'NONE', *, *, #218, .F. ) ;
#213 = EDGE_CURVE ( 'NONE', #204, #204, #10, .T. ) ;
#214 = FACE_OUTER_BOUND ( 'NONE', #175, .T. ) ;
#215 = DIRECTION ( 'NONE',  ( -3.491481338843133355E-15, 1.224646799147353207E-16, -1.000000000000000000 ) ) ;
#216 = DIRECTION ( 'NONE',  ( -4.275831445896958607E-31, -1.000000000000000000, -1.224646799147353207E-16 ) ) ;
#217 = APPROVAL_DATE_TIME ( #109, #149 ) ;
#218 = EDGE_CURVE ( 'NONE', #205, #205, #171, .T. ) ;
#219 = DIRECTION ( 'NONE',  ( 3.491481338843133355E-15, -1.224646799147353207E-16, 1.000000000000000000 ) ) ;
#220 = DIRECTION ( 'NONE',  ( 0.0000000000000000000, 1.000000000000000000, 0.0000000000000000000 ) ) ;
#221 = AXIS2_PLACEMENT_3D ( 'NONE', #185, #107, #35 ) ;
#222 = APPROVAL_STATUS ( 'not_yet_approved' ) ;
#223 = DATE_AND_TIME ( #242, #125 ) ;
#224 = PERSON_AND_ORGANIZATION ( #14, #159 ) ;
#225 = AXIS2_PLACEMENT_3D ( 'NONE', #7, #69, #216 ) ;
#226 = PRODUCT_DEFINITION_SHAPE ( 'NONE', 'NONE',  #95 ) ;
#227 = PERSON_AND_ORGANIZATION ( #14, #159 ) ;
#228 = COORDINATED_UNIVERSAL_TIME_OFFSET ( 1, 0, .AHEAD. ) ;
#229 = CALENDAR_DATE ( 2021, 2, 12 ) ;
#230 = APPROVAL_PERSON_ORGANIZATION ( #115, #149, #49 ) ;
#231 = EDGE_LOOP ( 'NONE', ( #5 ) ) ;
#232 = AXIS2_PLACEMENT_3D ( 'NONE', #168, #1, #22 ) ;
#233 = CC_DESIGN_PERSON_AND_ORGANIZATION_ASSIGNMENT ( #227, #98, ( #95 ) ) ;
#234 = EDGE_LOOP ( 'NONE', ( #63 ) ) ;
#235 = SHAPE_DEFINITION_REPRESENTATION ( #226, #84 ) ;
#236 = CARTESIAN_POINT ( 'NONE',  ( 2.793185071074506684E-13, 1.199807826129472128E-32, 80.00000000000000000 ) ) ;
#237 = AXIS2_PLACEMENT_3D ( 'NONE', #90, #215, #165 ) ;
#238 = CARTESIAN_POINT ( 'NONE',  ( 1.396592535537251370E-15, -4.898587196589405680E-17, 0.3999999999999994116 ) ) ;
#239 = ADVANCED_FACE ( 'NONE', ( #124, #200 ), #21, .T. ) ;
#240 = CYLINDRICAL_SURFACE ( 'NONE', #192, 2.755000000000030091 ) ;
#241 = DIRECTION ( 'NONE',  ( 4.275831445896958607E-31, 1.000000000000000000, 1.224646799147353207E-16 ) ) ;
#242 = CALENDAR_DATE ( 2021, 2, 12 ) ;
#243 = AXIS2_PLACEMENT_3D ( 'NONE', #108, #142, #11 ) ;
ENDSEC;
END-ISO-10303-21;
