ISO-10303-21;
HEADER;
FILE_DESCRIPTION (( 'STEP AP203' ),
    '1' );
FILE_NAME ('321776.step',
    '2021-12-02T12:57:36',
    ( '' ),
    ( '' ),
    'SwSTEP 2.0',
    'SolidWorks 2019',
    '' );
FILE_SCHEMA (( 'CONFIG_CONTROL_DESIGN' ));
ENDSEC;

DATA;
#1 = PLANE ( 'NONE',  #186 ) ;
#2 = AXIS2_PLACEMENT_3D ( 'NONE', #188, #181, #111 ) ;
#3 = CYLINDRICAL_SURFACE ( 'NONE', #78, 2.750000000000030198 ) ;
#4 = AXIS2_PLACEMENT_3D ( 'NONE', #43, #155, #64 ) ;
#5 = DIRECTION ( 'NONE',  ( 3.491481338843133355E-15, -1.224646799147353207E-16, 1.000000000000000000 ) ) ;
#6 = CARTESIAN_POINT ( 'NONE',  ( 4.189777606611760026E-14, -1.469576158976823947E-15, 12.00000000000000000 ) ) ;
#7 = CARTESIAN_POINT ( 'NONE',  ( 2.793185071074506684E-13, 1.599999999999991207, 80.00000000000000000 ) ) ;
#8 = PERSON_AND_ORGANIZATION ( #194, #115 ) ;
#9 = CALENDAR_DATE ( 2021, 2, 12 ) ;
#10 = VERTEX_POINT ( 'NONE', #117 ) ;
#11 = CC_DESIGN_PERSON_AND_ORGANIZATION_ASSIGNMENT ( #8, #175, ( #119 ) ) ;
#12 = DATE_AND_TIME ( #154, #204 ) ;
#13 = AXIS2_PLACEMENT_3D ( 'NONE', #60, #112, #89 ) ;
#14 = APPROVAL_PERSON_ORGANIZATION ( #82, #17, #63 ) ;
#15 = EDGE_LOOP ( 'NONE', ( #218 ) ) ;
#16 = CC_DESIGN_PERSON_AND_ORGANIZATION_ASSIGNMENT ( #140, #176, ( #223 ) ) ;
#17 = APPROVAL ( #157, 'UNSPECIFIED' ) ;
#18 = LOCAL_TIME ( 13, 57, 36.00000000000000000, #173 ) ;
#19 = FACE_OUTER_BOUND ( 'NONE', #104, .T. ) ;
#20 = DIRECTION ( 'NONE',  ( -3.491481338843133355E-15, 1.224646799147353207E-16, -1.000000000000000000 ) ) ;
#21 = PRODUCT ( '321776', '321776', '', ( #80 ) ) ;
#22 = DIRECTION ( 'NONE',  ( 0.0000000000000000000, 1.000000000000000000, 0.0000000000000000000 ) ) ;
#23 = CIRCLE ( 'NONE', #156, 2.000000000000000888 ) ;
#24 = CYLINDRICAL_SURFACE ( 'NONE', #67, 1.999999999999996669 ) ;
#25 = CC_DESIGN_APPROVAL ( #209, ( #177 ) ) ;
#26 = DIRECTION ( 'NONE',  ( 0.0000000000000000000, 1.000000000000000000, 0.0000000000000000000 ) ) ;
#27 = DIRECTION ( 'NONE',  ( 0.0000000000000000000, 1.000000000000000000, 0.0000000000000000000 ) ) ;
#28 = ADVANCED_FACE ( 'NONE', ( #141 ), #102, .F. ) ;
#29 = CALENDAR_DATE ( 2021, 2, 12 ) ;
#30 =( GEOMETRIC_REPRESENTATION_CONTEXT ( 3 ) GLOBAL_UNCERTAINTY_ASSIGNED_CONTEXT ( ( #232 ) ) GLOBAL_UNIT_ASSIGNED_CONTEXT ( ( #94, #153, #62 ) ) REPRESENTATION_CONTEXT ( 'NONE', 'WORKASPACE' ) );
#31 = DIRECTION ( 'NONE',  ( -3.491481338843133355E-15, 1.224646799147353207E-16, -1.000000000000000000 ) ) ;
#32 = EDGE_CURVE ( 'NONE', #172, #172, #148, .T. ) ;
#33 = SHAPE_DEFINITION_REPRESENTATION ( #224, #48 ) ;
#34 = APPROVAL_ROLE ( '' ) ;
#35 = ORIENTED_EDGE ( 'NONE', *, *, #136, .F. ) ;
#36 = PRODUCT_RELATED_PRODUCT_CATEGORY ( 'detail', '', ( #21 ) ) ;
#37 = DIRECTION ( 'NONE',  ( -3.491481338843133355E-15, 1.224646799147353207E-16, -1.000000000000000000 ) ) ;
#38 = DIRECTION ( 'NONE',  ( -3.491481338843133355E-15, 1.224646799147353207E-16, -1.000000000000000000 ) ) ;
#39 = DIRECTION ( 'NONE',  ( -4.275831445896958607E-31, -1.000000000000000000, -1.224646799147353454E-16 ) ) ;
#40 = CARTESIAN_POINT ( 'NONE',  ( 4.189777606611760026E-14, -1.469576158976823947E-15, 12.00000000000000000 ) ) ;
#41 = FACE_BOUND ( 'NONE', #200, .T. ) ;
#42 = ADVANCED_FACE ( 'NONE', ( #19 ), #202, .T. ) ;
#43 = CARTESIAN_POINT ( 'NONE',  ( 0.0000000000000000000, 0.0000000000000000000, 0.0000000000000000000 ) ) ;
#44 = DESIGN_CONTEXT ( 'detailed design', #229, 'design' ) ;
#45 = CARTESIAN_POINT ( 'NONE',  ( 4.189777606611760026E-14, 2.750000000000028866, 12.00000000000000000 ) ) ;
#46 = MANIFOLD_SOLID_BREP ( 'Corps-Déplacer/Copier1[1]', #95 ) ;
#47 = CARTESIAN_POINT ( 'NONE',  ( 0.0000000000000000000, 2.350000000000028511, 0.0000000000000000000 ) ) ;
#48 = ADVANCED_BREP_SHAPE_REPRESENTATION ( '321776', ( #46, #125, #4 ), #30 ) ;
#49 = CC_DESIGN_APPROVAL ( #242, ( #119 ) ) ;
#50 = ORIENTED_EDGE ( 'NONE', *, *, #178, .F. ) ;
#51 = AXIS2_PLACEMENT_3D ( 'NONE', #203, #37, #26 ) ;
#52 = COORDINATED_UNIVERSAL_TIME_OFFSET ( 1, 0, .AHEAD. ) ;
#53 = EDGE_CURVE ( 'NONE', #234, #234, #23, .T. ) ;
#54 = EDGE_LOOP ( 'NONE', ( #240 ) ) ;
#55 = CARTESIAN_POINT ( 'NONE',  ( -1.004820389785797508E-30, 3.524435489255408622E-32, -2.877919977996315326E-16 ) ) ;
#56 = CIRCLE ( 'NONE', #233, 1.999999999999992228 ) ;
#57 = CARTESIAN_POINT ( 'NONE',  ( 4.189777606611760026E-14, 2.062169701160075011E-32, 12.00000000000000000 ) ) ;
#58 = FACE_OUTER_BOUND ( 'NONE', #142, .T. ) ;
#59 = CARTESIAN_POINT ( 'NONE',  ( -5.024101948928987538E-31, 1.762217744627704311E-32, -1.438959988998157663E-16 ) ) ;
#60 = CARTESIAN_POINT ( 'NONE',  ( 4.189777606611760026E-14, 2.062169701160075011E-32, 12.00000000000000000 ) ) ;
#61 = ADVANCED_FACE ( 'NONE', ( #208, #185 ), #127, .T. ) ;
#62 =( NAMED_UNIT ( * ) SI_UNIT ( $, .STERADIAN. ) SOLID_ANGLE_UNIT ( ) );
#63 = APPROVAL_ROLE ( '' ) ;
#64 = DIRECTION ( 'NONE',  ( 1.000000000000000000, 0.0000000000000000000, 0.0000000000000000000 ) ) ;
#65 = CC_DESIGN_DATE_AND_TIME_ASSIGNMENT ( #12, #230, ( #119 ) ) ;
#66 = CIRCLE ( 'NONE', #237, 2.750000000000030198 ) ;
#67 = AXIS2_PLACEMENT_3D ( 'NONE', #151, #222, #128 ) ;
#68 = ORIENTED_EDGE ( 'NONE', *, *, #88, .T. ) ;
#69 = PERSON_AND_ORGANIZATION_ROLE ( 'classification_officer' ) ;
#70 = EDGE_LOOP ( 'NONE', ( #50 ) ) ;
#71 = EDGE_LOOP ( 'NONE', ( #164 ) ) ;
#72 = PLANE ( 'NONE',  #174 ) ;
#73 = DIRECTION ( 'NONE',  ( -3.491481338843133355E-15, 1.224646799147353207E-16, -1.000000000000000000 ) ) ;
#74 = CARTESIAN_POINT ( 'NONE',  ( 4.643334337053400190E-14, -1.628662444785567368E-15, 13.29903810567672018 ) ) ;
#75 = CARTESIAN_POINT ( 'NONE',  ( 2.793185071074506684E-13, -9.797174393178826052E-15, 80.00000000000000000 ) ) ;
#76 = CARTESIAN_POINT ( 'NONE',  ( 0.0000000000000000000, 0.0000000000000000000, 0.0000000000000000000 ) ) ;
#77 = VERTEX_POINT ( 'NONE', #45 ) ;
#78 = AXIS2_PLACEMENT_3D ( 'NONE', #76, #152, #227 ) ;
#79 = COORDINATED_UNIVERSAL_TIME_OFFSET ( 1, 0, .AHEAD. ) ;
#80 = MECHANICAL_CONTEXT ( 'NONE', #198, 'mechanical' ) ;
#81 = AXIS2_PLACEMENT_3D ( 'NONE', #55, #5, #39 ) ;
#82 = PERSON_AND_ORGANIZATION ( #194, #115 ) ;
#83 = ADVANCED_FACE ( 'NONE', ( #146 ), #1, .F. ) ;
#84 = PERSON_AND_ORGANIZATION ( #194, #115 ) ;
#85 = EDGE_LOOP ( 'NONE', ( #120 ) ) ;
#86 = AXIS2_PLACEMENT_3D ( 'NONE', #225, #38, #109 ) ;
#87 = DIRECTION ( 'NONE',  ( 0.0000000000000000000, 1.000000000000000000, 0.0000000000000000000 ) ) ;
#88 = EDGE_CURVE ( 'NONE', #135, #135, #56, .T. ) ;
#89 = DIRECTION ( 'NONE',  ( -4.275831445896958607E-31, -1.000000000000000000, -1.224646799147353207E-16 ) ) ;
#90 = DIRECTION ( 'NONE',  ( -3.491481338843133355E-15, 1.224646799147353207E-16, -1.000000000000000000 ) ) ;
#91 = DIRECTION ( 'NONE',  ( 0.0000000000000000000, 1.000000000000000000, 0.0000000000000000000 ) ) ;
#92 = CC_DESIGN_PERSON_AND_ORGANIZATION_ASSIGNMENT ( #231, #134, ( #21 ) ) ;
#93 = DIRECTION ( 'NONE',  ( -3.491481338843133355E-15, 1.224646799147353207E-16, -1.000000000000000000 ) ) ;
#94 =( LENGTH_UNIT ( ) NAMED_UNIT ( * ) SI_UNIT ( .MILLI., .METRE. ) );
#95 = CLOSED_SHELL ( 'NONE', ( #28, #162, #144, #61, #83 ) ) ;
#96 = LOCAL_TIME ( 13, 57, 36.00000000000000000, #179 ) ;
#97 = APPROVAL_DATE_TIME ( #214, #242 ) ;
#98 = APPROVAL_DATE_TIME ( #116, #17 ) ;
#99 = ADVANCED_FACE ( 'NONE', ( #165 ), #72, .T. ) ;
#100 = ADVANCED_FACE ( 'NONE', ( #110, #150 ), #170, .T. ) ;
#101 = APPROVAL_DATE_TIME ( #236, #209 ) ;
#102 = PLANE ( 'NONE',  #13 ) ;
#103 = PERSON_AND_ORGANIZATION ( #194, #115 ) ;
#104 = EDGE_LOOP ( 'NONE', ( #180 ) ) ;
#105 = ORIENTED_EDGE ( 'NONE', *, *, #139, .F. ) ;
#106 = CALENDAR_DATE ( 2021, 2, 12 ) ;
#107 = EDGE_LOOP ( 'NONE', ( #35 ) ) ;
#108 = CARTESIAN_POINT ( 'NONE',  ( 2.793185071074506684E-13, 1.199807826129472128E-32, 80.00000000000000000 ) ) ;
#109 = DIRECTION ( 'NONE',  ( 4.202028969572104853E-31, 1.000000000000000000, 1.182766006347810043E-16 ) ) ;
#110 = FACE_OUTER_BOUND ( 'NONE', #138, .T. ) ;
#111 = DIRECTION ( 'NONE',  ( 4.275831445896958607E-31, 1.000000000000000000, 1.224646799147353454E-16 ) ) ;
#112 = DIRECTION ( 'NONE',  ( 3.491481338843133355E-15, -1.224646799147353207E-16, 1.000000000000000000 ) ) ;
#113 = PERSON_AND_ORGANIZATION ( #194, #115 ) ;
#114 = CLOSED_SHELL ( 'NONE', ( #189, #99, #42, #100 ) ) ;
#115 = ORGANIZATION ( 'UNSPECIFIED', 'UNSPECIFIED', '' ) ;
#116 = DATE_AND_TIME ( #9, #210 ) ;
#117 = CARTESIAN_POINT ( 'NONE',  ( 1.396592535537253342E-15, 2.750000000000030198, 0.3999999999999999667 ) ) ;
#118 = CARTESIAN_POINT ( 'NONE',  ( 4.643334337053400190E-14, 1.999999999999990452, 13.29903810567672018 ) ) ;
#119 = PRODUCT_DEFINITION ( 'UNKNOWN', '', #223, #44 ) ;
#120 = ORIENTED_EDGE ( 'NONE', *, *, #178, .T. ) ;
#121 = ORIENTED_EDGE ( 'NONE', *, *, #53, .T. ) ;
#122 = AXIS2_PLACEMENT_3D ( 'NONE', #59, #243, #166 ) ;
#123 = AXIS2_PLACEMENT_3D ( 'NONE', #6, #184, #22 ) ;
#124 = EDGE_LOOP ( 'NONE', ( #161 ) ) ;
#125 = MANIFOLD_SOLID_BREP ( 'Corps-Déplacer/Copier1[2]', #114 ) ;
#126 = DIRECTION ( 'NONE',  ( 0.0000000000000000000, 1.000000000000000000, 0.0000000000000000000 ) ) ;
#127 = CONICAL_SURFACE ( 'NONE', #51, 1.600000000000000977, 0.7853981633974512766 ) ;
#128 = DIRECTION ( 'NONE',  ( 4.275831445896958607E-31, 1.000000000000000000, 1.224646799147353207E-16 ) ) ;
#129 = FACE_OUTER_BOUND ( 'NONE', #107, .T. ) ;
#130 = DIRECTION ( 'NONE',  ( -4.275831445896958607E-31, -1.000000000000000000, -1.224646799147353207E-16 ) ) ;
#131 = CARTESIAN_POINT ( 'NONE',  ( 2.779219145719134403E-13, 1.999999999999991340, 79.60000000000000853 ) ) ;
#132 = COORDINATED_UNIVERSAL_TIME_OFFSET ( 1, 0, .AHEAD. ) ;
#133 = CC_DESIGN_APPROVAL ( #17, ( #223 ) ) ;
#134 = PERSON_AND_ORGANIZATION_ROLE ( 'design_owner' ) ;
#135 = VERTEX_POINT ( 'NONE', #118 ) ;
#136 = EDGE_CURVE ( 'NONE', #171, #171, #199, .T. ) ;
#137 = PERSON_AND_ORGANIZATION ( #194, #115 ) ;
#138 = EDGE_LOOP ( 'NONE', ( #160 ) ) ;
#139 = EDGE_CURVE ( 'NONE', #10, #10, #182, .T. ) ;
#140 = PERSON_AND_ORGANIZATION ( #194, #115 ) ;
#141 = FACE_OUTER_BOUND ( 'NONE', #54, .T. ) ;
#142 = EDGE_LOOP ( 'NONE', ( #121 ) ) ;
#143 = AXIS2_PLACEMENT_3D ( 'NONE', #40, #20, #126 ) ;
#144 = ADVANCED_FACE ( 'NONE', ( #183, #58 ), #24, .T. ) ;
#145 = EDGE_LOOP ( 'NONE', ( #197 ) ) ;
#146 = FACE_OUTER_BOUND ( 'NONE', #70, .T. ) ;
#147 = DIRECTION ( 'NONE',  ( 4.275831445896958607E-31, 1.000000000000000000, 1.224646799147353207E-16 ) ) ;
#148 = CIRCLE ( 'NONE', #2, 2.350000000000028511 ) ;
#149 = AXIS2_PLACEMENT_3D ( 'NONE', #75, #90, #207 ) ;
#150 = FACE_BOUND ( 'NONE', #145, .T. ) ;
#151 = CARTESIAN_POINT ( 'NONE',  ( 0.0000000000000000000, 0.0000000000000000000, 0.0000000000000000000 ) ) ;
#152 = DIRECTION ( 'NONE',  ( -3.491481338843133355E-15, 1.224646799147353207E-16, -1.000000000000000000 ) ) ;
#153 =( NAMED_UNIT ( * ) PLANE_ANGLE_UNIT ( ) SI_UNIT ( $, .RADIAN. ) );
#154 = CALENDAR_DATE ( 2021, 2, 12 ) ;
#155 = DIRECTION ( 'NONE',  ( 0.0000000000000000000, 0.0000000000000000000, 1.000000000000000000 ) ) ;
#156 = AXIS2_PLACEMENT_3D ( 'NONE', #206, #73, #91 ) ;
#157 = APPROVAL_STATUS ( 'not_yet_approved' ) ;
#158 = APPROVAL_PERSON_ORGANIZATION ( #84, #209, #34 ) ;
#159 = PERSON_AND_ORGANIZATION_ROLE ( 'design_supplier' ) ;
#160 = ORIENTED_EDGE ( 'NONE', *, *, #139, .T. ) ;
#161 = ORIENTED_EDGE ( 'NONE', *, *, #205, .F. ) ;
#162 = ADVANCED_FACE ( 'NONE', ( #41, #129 ), #228, .T. ) ;
#163 = APPROVAL_STATUS ( 'not_yet_approved' ) ;
#164 = ORIENTED_EDGE ( 'NONE', *, *, #53, .F. ) ;
#165 = FACE_OUTER_BOUND ( 'NONE', #124, .T. ) ;
#166 = DIRECTION ( 'NONE',  ( 4.275831445896958607E-31, 1.000000000000000000, 1.224646799147353207E-16 ) ) ;
#167 = FACE_OUTER_BOUND ( 'NONE', #239, .T. ) ;
#168 = FACE_OUTER_BOUND ( 'NONE', #201, .T. ) ;
#169 = DIRECTION ( 'NONE',  ( -3.491481338843133355E-15, 1.224646799147353207E-16, -1.000000000000000000 ) ) ;
#170 = CONICAL_SURFACE ( 'NONE', #81, 2.350000000000028511, 0.7853981633974502774 ) ;
#171 = VERTEX_POINT ( 'NONE', #195 ) ;
#172 = VERTEX_POINT ( 'NONE', #47 ) ;
#173 = COORDINATED_UNIVERSAL_TIME_OFFSET ( 1, 0, .AHEAD. ) ;
#174 = AXIS2_PLACEMENT_3D ( 'NONE', #57, #221, #130 ) ;
#175 = PERSON_AND_ORGANIZATION_ROLE ( 'creator' ) ;
#176 = PERSON_AND_ORGANIZATION_ROLE ( 'creator' ) ;
#177 = SECURITY_CLASSIFICATION ( '', '', #196 ) ;
#178 = EDGE_CURVE ( 'NONE', #235, #235, #187, .T. ) ;
#179 = COORDINATED_UNIVERSAL_TIME_OFFSET ( 1, 0, .AHEAD. ) ;
#180 = ORIENTED_EDGE ( 'NONE', *, *, #32, .T. ) ;
#181 = DIRECTION ( 'NONE',  ( -3.491481338843133355E-15, 1.224646799147353207E-16, -1.000000000000000000 ) ) ;
#182 = CIRCLE ( 'NONE', #86, 2.750000000000030198 ) ;
#183 = FACE_OUTER_BOUND ( 'NONE', #15, .T. ) ;
#184 = DIRECTION ( 'NONE',  ( -3.491481338843133355E-15, 1.224646799147353207E-16, -1.000000000000000000 ) ) ;
#185 = FACE_BOUND ( 'NONE', #85, .T. ) ;
#186 = AXIS2_PLACEMENT_3D ( 'NONE', #108, #93, #147 ) ;
#187 = CIRCLE ( 'NONE', #149, 1.600000000000000977 ) ;
#188 = CARTESIAN_POINT ( 'NONE',  ( -1.004820389785797508E-30, 3.524435489255408622E-32, -2.877919977996315326E-16 ) ) ;
#189 = ADVANCED_FACE ( 'NONE', ( #168, #167 ), #3, .T. ) ;
#190 = APPLICATION_PROTOCOL_DEFINITION ( 'international standard', 'config_control_design', 1994, #198 ) ;
#191 = APPROVAL_STATUS ( 'not_yet_approved' ) ;
#192 = CC_DESIGN_SECURITY_CLASSIFICATION ( #177, ( #223 ) ) ;
#193 = APPROVAL_ROLE ( '' ) ;
#194 = PERSON ( 'UNSPECIFIED', 'UNSPECIFIED', 'UNSPECIFIED', ('UNSPECIFIED'), ('UNSPECIFIED'), ('UNSPECIFIED') ) ;
#195 = CARTESIAN_POINT ( 'NONE',  ( 4.189777606611760026E-14, 2.750000000000028866, 12.00000000000000000 ) ) ;
#196 = SECURITY_CLASSIFICATION_LEVEL ( 'unclassified' ) ;
#197 = ORIENTED_EDGE ( 'NONE', *, *, #32, .F. ) ;
#198 = APPLICATION_CONTEXT ( 'configuration controlled 3d designs of mechanical parts and assemblies' ) ;
#199 = CIRCLE ( 'NONE', #143, 2.750000000000030198 ) ;
#200 = EDGE_LOOP ( 'NONE', ( #68 ) ) ;
#201 = EDGE_LOOP ( 'NONE', ( #241 ) ) ;
#202 = PLANE ( 'NONE',  #122 ) ;
#203 = CARTESIAN_POINT ( 'NONE',  ( 2.793185071074506684E-13, -9.797174393178826052E-15, 80.00000000000000000 ) ) ;
#204 = LOCAL_TIME ( 13, 57, 36.00000000000000000, #79 ) ;
#205 = EDGE_CURVE ( 'NONE', #77, #77, #66, .T. ) ;
#206 = CARTESIAN_POINT ( 'NONE',  ( 2.779219145719134403E-13, -9.748188521212932624E-15, 79.60000000000000853 ) ) ;
#207 = DIRECTION ( 'NONE',  ( 0.0000000000000000000, 1.000000000000000000, 0.0000000000000000000 ) ) ;
#208 = FACE_OUTER_BOUND ( 'NONE', #71, .T. ) ;
#209 = APPROVAL ( #163, 'UNSPECIFIED' ) ;
#210 = LOCAL_TIME ( 13, 57, 36.00000000000000000, #132 ) ;
#211 = APPLICATION_PROTOCOL_DEFINITION ( 'international standard', 'config_control_design', 1994, #229 ) ;
#212 = CC_DESIGN_PERSON_AND_ORGANIZATION_ASSIGNMENT ( #137, #69, ( #177 ) ) ;
#213 = CARTESIAN_POINT ( 'NONE',  ( 4.189777606611760026E-14, -1.469576158976823947E-15, 12.00000000000000000 ) ) ;
#214 = DATE_AND_TIME ( #29, #18 ) ;
#215 = CC_DESIGN_DATE_AND_TIME_ASSIGNMENT ( #238, #219, ( #177 ) ) ;
#216 = APPROVAL_PERSON_ORGANIZATION ( #113, #242, #193 ) ;
#217 = CALENDAR_DATE ( 2021, 2, 12 ) ;
#218 = ORIENTED_EDGE ( 'NONE', *, *, #88, .F. ) ;
#219 = DATE_TIME_ROLE ( 'classification_date' ) ;
#220 = LOCAL_TIME ( 13, 57, 36.00000000000000000, #52 ) ;
#221 = DIRECTION ( 'NONE',  ( 3.491481338843133355E-15, -1.224646799147353207E-16, 1.000000000000000000 ) ) ;
#222 = DIRECTION ( 'NONE',  ( -3.491481338843133355E-15, 1.224646799147353207E-16, -1.000000000000000000 ) ) ;
#223 = PRODUCT_DEFINITION_FORMATION_WITH_SPECIFIED_SOURCE ( 'ANY', '', #21, .NOT_KNOWN. ) ;
#224 = PRODUCT_DEFINITION_SHAPE ( 'NONE', 'NONE',  #119 ) ;
#225 = CARTESIAN_POINT ( 'NONE',  ( 1.396592535537252159E-15, -4.898587196589408145E-17, 0.3999999999999996336 ) ) ;
#226 = CC_DESIGN_PERSON_AND_ORGANIZATION_ASSIGNMENT ( #103, #159, ( #223 ) ) ;
#227 = DIRECTION ( 'NONE',  ( 4.275831445896958607E-31, 1.000000000000000000, 1.224646799147353207E-16 ) ) ;
#228 = CONICAL_SURFACE ( 'NONE', #123, 2.750000000000030198, 0.5235987755983001479 ) ;
#229 = APPLICATION_CONTEXT ( 'configuration controlled 3d designs of mechanical parts and assemblies' ) ;
#230 = DATE_TIME_ROLE ( 'creation_date' ) ;
#231 = PERSON_AND_ORGANIZATION ( #194, #115 ) ;
#232 = UNCERTAINTY_MEASURE_WITH_UNIT (LENGTH_MEASURE( 1.000000000000000082E-05 ), #94, 'distance_accuracy_value', 'NONE');
#233 = AXIS2_PLACEMENT_3D ( 'NONE', #74, #169, #87 ) ;
#234 = VERTEX_POINT ( 'NONE', #131 ) ;
#235 = VERTEX_POINT ( 'NONE', #7 ) ;
#236 = DATE_AND_TIME ( #106, #96 ) ;
#237 = AXIS2_PLACEMENT_3D ( 'NONE', #213, #31, #27 ) ;
#238 = DATE_AND_TIME ( #217, #220 ) ;
#239 = EDGE_LOOP ( 'NONE', ( #105 ) ) ;
#240 = ORIENTED_EDGE ( 'NONE', *, *, #136, .T. ) ;
#241 = ORIENTED_EDGE ( 'NONE', *, *, #205, .T. ) ;
#242 = APPROVAL ( #191, 'UNSPECIFIED' ) ;
#243 = DIRECTION ( 'NONE',  ( -3.491481338843133355E-15, 1.224646799147353207E-16, -1.000000000000000000 ) ) ;
ENDSEC;
END-ISO-10303-21;
