ISO-10303-21;
HEADER;
FILE_DESCRIPTION (( 'STEP AP203' ),
    '1' );
FILE_NAME ('321775.step',
    '2021-12-02T12:57:36',
    ( '' ),
    ( '' ),
    'SwSTEP 2.0',
    'SolidWorks 2019',
    '' );
FILE_SCHEMA (( 'CONFIG_CONTROL_DESIGN' ));
ENDSEC;

DATA;
#1 = SECURITY_CLASSIFICATION_LEVEL ( 'unclassified' ) ;
#2 = EDGE_LOOP ( 'NONE', ( #91 ) ) ;
#3 = CLOSED_SHELL ( 'NONE', ( #77, #92, #135, #39, #155 ) ) ;
#4 = PERSON_AND_ORGANIZATION_ROLE ( 'design_supplier' ) ;
#5 = CARTESIAN_POINT ( 'NONE',  ( 4.189777606611760026E-14, -1.469576158976823947E-15, 12.00000000000000000 ) ) ;
#6 = DIRECTION ( 'NONE',  ( -3.491481338843133355E-15, 1.224646799147353207E-16, -1.000000000000000000 ) ) ;
#7 = PERSON_AND_ORGANIZATION_ROLE ( 'creator' ) ;
#8 = CARTESIAN_POINT ( 'NONE',  ( 2.793185071074506684E-13, -9.797174393178826052E-15, 80.00000000000000000 ) ) ;
#9 = CONICAL_SURFACE ( 'NONE', #87, 2.745000000000029861, 0.5235987755983003700 ) ;
#10 = DIRECTION ( 'NONE',  ( -3.491481338843133355E-15, 1.224646799147353207E-16, -1.000000000000000000 ) ) ;
#11 = CARTESIAN_POINT ( 'NONE',  ( 4.189777606611760026E-14, 2.058420301703420340E-32, 12.00000000000000000 ) ) ;
#12 = CC_DESIGN_SECURITY_CLASSIFICATION ( #83, ( #45 ) ) ;
#13 = APPROVAL ( #219, 'UNSPECIFIED' ) ;
#14 = CARTESIAN_POINT ( 'NONE',  ( 2.779219145719134403E-13, 1.999999999999991340, 79.60000000000000853 ) ) ;
#15 = PERSON_AND_ORGANIZATION_ROLE ( 'design_owner' ) ;
#16 = APPLICATION_PROTOCOL_DEFINITION ( 'international standard', 'config_control_design', 1994, #243 ) ;
#17 = EDGE_LOOP ( 'NONE', ( #35 ) ) ;
#18 = CARTESIAN_POINT ( 'NONE',  ( 2.793185071074506684E-13, 1.599999999999991207, 80.00000000000000000 ) ) ;
#19 = AXIS2_PLACEMENT_3D ( 'NONE', #169, #65, #111 ) ;
#20 = PRODUCT ( '321775', '321775', '', ( #48 ) ) ;
#21 = DIRECTION ( 'NONE',  ( -3.491481338843133355E-15, 1.224646799147353207E-16, -1.000000000000000000 ) ) ;
#22 = SHAPE_DEFINITION_REPRESENTATION ( #227, #46 ) ;
#23 = CARTESIAN_POINT ( 'NONE',  ( 4.189777606611760026E-14, 2.058420301703420340E-32, 12.00000000000000000 ) ) ;
#24 = DIRECTION ( 'NONE',  ( 4.275831445896958607E-31, 1.000000000000000000, 1.224646799147353207E-16 ) ) ;
#25 = CC_DESIGN_DATE_AND_TIME_ASSIGNMENT ( #199, #138, ( #197 ) ) ;
#26 = CIRCLE ( 'NONE', #160, 2.745000000000029861 ) ;
#27 = FACE_BOUND ( 'NONE', #53, .T. ) ;
#28 = EDGE_CURVE ( 'NONE', #54, #54, #67, .T. ) ;
#29 = AXIS2_PLACEMENT_3D ( 'NONE', #23, #98, #171 ) ;
#30 = CARTESIAN_POINT ( 'NONE',  ( 4.189777606611760026E-14, 2.745000000000028528, 12.00000000000000000 ) ) ;
#31 = CARTESIAN_POINT ( 'NONE',  ( 4.189777606611760026E-14, 2.745000000000028528, 12.00000000000000000 ) ) ;
#32 = PERSON_AND_ORGANIZATION ( #89, #210 ) ;
#33 =( NAMED_UNIT ( * ) PLANE_ANGLE_UNIT ( ) SI_UNIT ( $, .RADIAN. ) );
#34 = EDGE_CURVE ( 'NONE', #52, #52, #226, .T. ) ;
#35 = ORIENTED_EDGE ( 'NONE', *, *, #115, .T. ) ;
#36 = ORIENTED_EDGE ( 'NONE', *, *, #180, .F. ) ;
#37 = CIRCLE ( 'NONE', #90, 1.600000000000000977 ) ;
#38 = EDGE_LOOP ( 'NONE', ( #220 ) ) ;
#39 = ADVANCED_FACE ( 'NONE', ( #131, #27 ), #116, .T. ) ;
#40 = APPROVAL_STATUS ( 'not_yet_approved' ) ;
#41 = DIRECTION ( 'NONE',  ( -3.491481338843133355E-15, 1.224646799147353207E-16, -1.000000000000000000 ) ) ;
#42 = FACE_OUTER_BOUND ( 'NONE', #187, .T. ) ;
#43 = CARTESIAN_POINT ( 'NONE',  ( 4.189777606611760026E-14, -1.469576158976823947E-15, 12.00000000000000000 ) ) ;
#44 = FACE_OUTER_BOUND ( 'NONE', #38, .T. ) ;
#45 = PRODUCT_DEFINITION_FORMATION_WITH_SPECIFIED_SOURCE ( 'ANY', '', #20, .NOT_KNOWN. ) ;
#46 = ADVANCED_BREP_SHAPE_REPRESENTATION ( '321775', ( #217, #225, #154 ), #173 ) ;
#47 = CARTESIAN_POINT ( 'NONE',  ( 0.0000000000000000000, 0.0000000000000000000, 0.0000000000000000000 ) ) ;
#48 = MECHANICAL_CONTEXT ( 'NONE', #198, 'mechanical' ) ;
#49 = CIRCLE ( 'NONE', #80, 2.345000000000028617 ) ;
#50 = EDGE_LOOP ( 'NONE', ( #182 ) ) ;
#51 = ADVANCED_FACE ( 'NONE', ( #156, #153 ), #151, .T. ) ;
#52 = VERTEX_POINT ( 'NONE', #31 ) ;
#53 = EDGE_LOOP ( 'NONE', ( #55 ) ) ;
#54 = VERTEX_POINT ( 'NONE', #118 ) ;
#55 = ORIENTED_EDGE ( 'NONE', *, *, #209, .T. ) ;
#56 = DATE_TIME_ROLE ( 'classification_date' ) ;
#57 = ORIENTED_EDGE ( 'NONE', *, *, #28, .F. ) ;
#58 = CONICAL_SURFACE ( 'NONE', #183, 2.345000000000028617, 0.7853981633974504994 ) ;
#59 = DATE_AND_TIME ( #190, #221 ) ;
#60 = PRODUCT_RELATED_PRODUCT_CATEGORY ( 'detail', '', ( #20 ) ) ;
#61 = CARTESIAN_POINT ( 'NONE',  ( 2.793185071074506684E-13, 1.199807826129472128E-32, 80.00000000000000000 ) ) ;
#62 = CARTESIAN_POINT ( 'NONE',  ( 2.779219145719134403E-13, -9.748188521212932624E-15, 79.60000000000000853 ) ) ;
#63 = FACE_OUTER_BOUND ( 'NONE', #123, .T. ) ;
#64 = DIRECTION ( 'NONE',  ( 0.0000000000000000000, 1.000000000000000000, 0.0000000000000000000 ) ) ;
#65 = DIRECTION ( 'NONE',  ( -3.491481338843133355E-15, 1.224646799147353207E-16, -1.000000000000000000 ) ) ;
#66 = DIRECTION ( 'NONE',  ( 1.000000000000000000, 0.0000000000000000000, 0.0000000000000000000 ) ) ;
#67 = CIRCLE ( 'NONE', #110, 1.999999999999992228 ) ;
#68 = PERSON_AND_ORGANIZATION_ROLE ( 'creator' ) ;
#69 = PERSON_AND_ORGANIZATION ( #89, #210 ) ;
#70 = VERTEX_POINT ( 'NONE', #137 ) ;
#71 = EDGE_LOOP ( 'NONE', ( #147 ) ) ;
#72 = PERSON_AND_ORGANIZATION ( #89, #210 ) ;
#73 = CC_DESIGN_PERSON_AND_ORGANIZATION_ASSIGNMENT ( #95, #7, ( #45 ) ) ;
#74 = ORIENTED_EDGE ( 'NONE', *, *, #133, .F. ) ;
#75 = PLANE ( 'NONE',  #94 ) ;
#76 = DIRECTION ( 'NONE',  ( 4.209682938551289129E-31, 1.000000000000000000, 1.184920407087970021E-16 ) ) ;
#77 = ADVANCED_FACE ( 'NONE', ( #170 ), #100, .F. ) ;
#78 = PERSON_AND_ORGANIZATION_ROLE ( 'classification_officer' ) ;
#79 = DIRECTION ( 'NONE',  ( -3.491481338843133355E-15, 1.224646799147353207E-16, -1.000000000000000000 ) ) ;
#80 = AXIS2_PLACEMENT_3D ( 'NONE', #132, #99, #235 ) ;
#81 = DIRECTION ( 'NONE',  ( 0.0000000000000000000, 1.000000000000000000, 0.0000000000000000000 ) ) ;
#82 = DIRECTION ( 'NONE',  ( -3.491481338843133355E-15, 1.224646799147353207E-16, -1.000000000000000000 ) ) ;
#83 = SECURITY_CLASSIFICATION ( '', '', #1 ) ;
#84 = APPROVAL ( #146, 'UNSPECIFIED' ) ;
#85 = VERTEX_POINT ( 'NONE', #30 ) ;
#86 = APPLICATION_PROTOCOL_DEFINITION ( 'international standard', 'config_control_design', 1994, #198 ) ;
#87 = AXIS2_PLACEMENT_3D ( 'NONE', #5, #82, #157 ) ;
#88 = APPROVAL_DATE_TIME ( #162, #84 ) ;
#89 = PERSON ( 'UNSPECIFIED', 'UNSPECIFIED', 'UNSPECIFIED', ('UNSPECIFIED'), ('UNSPECIFIED'), ('UNSPECIFIED') ) ;
#90 = AXIS2_PLACEMENT_3D ( 'NONE', #8, #79, #233 ) ;
#91 = ORIENTED_EDGE ( 'NONE', *, *, #34, .F. ) ;
#92 = ADVANCED_FACE ( 'NONE', ( #175, #207 ), #9, .T. ) ;
#93 = FACE_OUTER_BOUND ( 'NONE', #17, .T. ) ;
#94 = AXIS2_PLACEMENT_3D ( 'NONE', #150, #228, #24 ) ;
#95 = PERSON_AND_ORGANIZATION ( #89, #210 ) ;
#96 = DIRECTION ( 'NONE',  ( 4.275831445896958607E-31, 1.000000000000000000, 1.224646799147353207E-16 ) ) ;
#97 = CC_DESIGN_PERSON_AND_ORGANIZATION_ASSIGNMENT ( #72, #15, ( #20 ) ) ;
#98 = DIRECTION ( 'NONE',  ( 3.491481338843133355E-15, -1.224646799147353207E-16, 1.000000000000000000 ) ) ;
#99 = DIRECTION ( 'NONE',  ( -3.491481338843133355E-15, 1.224646799147353207E-16, -1.000000000000000000 ) ) ;
#100 = PLANE ( 'NONE',  #166 ) ;
#101 = VERTEX_POINT ( 'NONE', #14 ) ;
#102 = UNCERTAINTY_MEASURE_WITH_UNIT (LENGTH_MEASURE( 1.000000000000000082E-05 ), #216, 'distance_accuracy_value', 'NONE');
#103 = DATE_AND_TIME ( #201, #178 ) ;
#104 = APPROVAL_DATE_TIME ( #103, #13 ) ;
#105 = ORIENTED_EDGE ( 'NONE', *, *, #229, .T. ) ;
#106 = CC_DESIGN_APPROVAL ( #186, ( #83 ) ) ;
#107 = ORIENTED_EDGE ( 'NONE', *, *, #34, .T. ) ;
#108 = PERSON_AND_ORGANIZATION ( #89, #210 ) ;
#109 = DIRECTION ( 'NONE',  ( 3.491481338843133355E-15, -1.224646799147353207E-16, 1.000000000000000000 ) ) ;
#110 = AXIS2_PLACEMENT_3D ( 'NONE', #185, #194, #81 ) ;
#111 = DIRECTION ( 'NONE',  ( 0.0000000000000000000, 1.000000000000000000, 0.0000000000000000000 ) ) ;
#112 = CARTESIAN_POINT ( 'NONE',  ( 2.793185071074506684E-13, -9.797174393178826052E-15, 80.00000000000000000 ) ) ;
#113 = FACE_BOUND ( 'NONE', #50, .T. ) ;
#114 = AXIS2_PLACEMENT_3D ( 'NONE', #61, #41, #96 ) ;
#115 = EDGE_CURVE ( 'NONE', #224, #224, #49, .T. ) ;
#116 = CONICAL_SURFACE ( 'NONE', #176, 1.600000000000000977, 0.7853981633974512766 ) ;
#117 = CARTESIAN_POINT ( 'NONE',  ( 0.0000000000000000000, 0.0000000000000000000, 0.0000000000000000000 ) ) ;
#118 = CARTESIAN_POINT ( 'NONE',  ( 4.640310625517122686E-14, 1.999999999999990452, 13.29037785163887442 ) ) ;
#119 = APPROVAL_ROLE ( '' ) ;
#120 = LOCAL_TIME ( 13, 57, 36.00000000000000000, #140 ) ;
#121 = ORIENTED_EDGE ( 'NONE', *, *, #229, .F. ) ;
#122 = CALENDAR_DATE ( 2021, 2, 12 ) ;
#123 = EDGE_LOOP ( 'NONE', ( #202 ) ) ;
#124 = VERTEX_POINT ( 'NONE', #18 ) ;
#125 = COORDINATED_UNIVERSAL_TIME_OFFSET ( 1, 0, .AHEAD. ) ;
#126 = CIRCLE ( 'NONE', #142, 2.000000000000000888 ) ;
#127 = APPROVAL_ROLE ( '' ) ;
#128 = DIRECTION ( 'NONE',  ( 4.275831445896958607E-31, 1.000000000000000000, 1.224646799147353454E-16 ) ) ;
#129 = CALENDAR_DATE ( 2021, 2, 12 ) ;
#130 = CYLINDRICAL_SURFACE ( 'NONE', #168, 1.999999999999996669 ) ;
#131 = FACE_OUTER_BOUND ( 'NONE', #167, .T. ) ;
#132 = CARTESIAN_POINT ( 'NONE',  ( -1.002682474062848861E-30, 3.516936690342098731E-32, -2.871796744000577957E-16 ) ) ;
#133 = EDGE_CURVE ( 'NONE', #101, #101, #126, .T. ) ;
#134 = CLOSED_SHELL ( 'NONE', ( #51, #203, #139, #242 ) ) ;
#135 = ADVANCED_FACE ( 'NONE', ( #42, #63 ), #130, .T. ) ;
#136 = DIRECTION ( 'NONE',  ( -3.491481338843133355E-15, 1.224646799147353207E-16, -1.000000000000000000 ) ) ;
#137 = CARTESIAN_POINT ( 'NONE',  ( 1.396592535537252553E-15, 2.745000000000029861, 0.3999999999999997446 ) ) ;
#138 = DATE_TIME_ROLE ( 'creation_date' ) ;
#139 = ADVANCED_FACE ( 'NONE', ( #93 ), #75, .T. ) ;
#140 = COORDINATED_UNIVERSAL_TIME_OFFSET ( 1, 0, .AHEAD. ) ;
#141 = PERSON_AND_ORGANIZATION ( #89, #210 ) ;
#142 = AXIS2_PLACEMENT_3D ( 'NONE', #62, #136, #234 ) ;
#143 = LOCAL_TIME ( 13, 57, 36.00000000000000000, #125 ) ;
#144 = EDGE_LOOP ( 'NONE', ( #36 ) ) ;
#145 = CC_DESIGN_DATE_AND_TIME_ASSIGNMENT ( #59, #56, ( #83 ) ) ;
#146 = APPROVAL_STATUS ( 'not_yet_approved' ) ;
#147 = ORIENTED_EDGE ( 'NONE', *, *, #209, .F. ) ;
#148 = EDGE_LOOP ( 'NONE', ( #105 ) ) ;
#149 = CC_DESIGN_APPROVAL ( #84, ( #197 ) ) ;
#150 = CARTESIAN_POINT ( 'NONE',  ( -5.013412370314244305E-31, 1.758468345171049366E-32, -1.435898372000288979E-16 ) ) ;
#151 = CYLINDRICAL_SURFACE ( 'NONE', #200, 2.745000000000029861 ) ;
#152 = COORDINATED_UNIVERSAL_TIME_OFFSET ( 1, 0, .AHEAD. ) ;
#153 = FACE_OUTER_BOUND ( 'NONE', #144, .T. ) ;
#154 = AXIS2_PLACEMENT_3D ( 'NONE', #179, #237, #66 ) ;
#155 = ADVANCED_FACE ( 'NONE', ( #212 ), #189, .F. ) ;
#156 = FACE_OUTER_BOUND ( 'NONE', #148, .T. ) ;
#157 = DIRECTION ( 'NONE',  ( 0.0000000000000000000, 1.000000000000000000, 0.0000000000000000000 ) ) ;
#158 = APPROVAL_PERSON_ORGANIZATION ( #32, #13, #119 ) ;
#159 =( NAMED_UNIT ( * ) SI_UNIT ( $, .STERADIAN. ) SOLID_ANGLE_UNIT ( ) );
#160 = AXIS2_PLACEMENT_3D ( 'NONE', #172, #6, #76 ) ;
#161 = APPROVAL_ROLE ( '' ) ;
#162 = DATE_AND_TIME ( #122, #174 ) ;
#163 = CALENDAR_DATE ( 2021, 2, 12 ) ;
#164 = CC_DESIGN_PERSON_AND_ORGANIZATION_ASSIGNMENT ( #69, #68, ( #197 ) ) ;
#165 = DIRECTION ( 'NONE',  ( -4.275831445896957731E-31, -1.000000000000000000, -1.224646799147352961E-16 ) ) ;
#166 = AXIS2_PLACEMENT_3D ( 'NONE', #11, #109, #230 ) ;
#167 = EDGE_LOOP ( 'NONE', ( #74 ) ) ;
#168 = AXIS2_PLACEMENT_3D ( 'NONE', #47, #214, #196 ) ;
#169 = CARTESIAN_POINT ( 'NONE',  ( 4.189777606611760026E-14, -1.469576158976823947E-15, 12.00000000000000000 ) ) ;
#170 = FACE_OUTER_BOUND ( 'NONE', #223, .T. ) ;
#171 = DIRECTION ( 'NONE',  ( -4.275831445896958607E-31, -1.000000000000000000, -1.224646799147353207E-16 ) ) ;
#172 = CARTESIAN_POINT ( 'NONE',  ( 1.396592535537251370E-15, -4.898587196589405680E-17, 0.3999999999999994116 ) ) ;
#173 =( GEOMETRIC_REPRESENTATION_CONTEXT ( 3 ) GLOBAL_UNCERTAINTY_ASSIGNED_CONTEXT ( ( #102 ) ) GLOBAL_UNIT_ASSIGNED_CONTEXT ( ( #216, #33, #159 ) ) REPRESENTATION_CONTEXT ( 'NONE', 'WORKASPACE' ) );
#174 = LOCAL_TIME ( 13, 57, 36.00000000000000000, #238 ) ;
#175 = FACE_BOUND ( 'NONE', #240, .T. ) ;
#176 = AXIS2_PLACEMENT_3D ( 'NONE', #112, #213, #193 ) ;
#177 = CARTESIAN_POINT ( 'NONE',  ( -1.002682474062848861E-30, 3.516936690342098731E-32, -2.871796744000577957E-16 ) ) ;
#178 = LOCAL_TIME ( 13, 57, 36.00000000000000000, #222 ) ;
#179 = CARTESIAN_POINT ( 'NONE',  ( 0.0000000000000000000, 0.0000000000000000000, 0.0000000000000000000 ) ) ;
#180 = EDGE_CURVE ( 'NONE', #70, #70, #26, .T. ) ;
#181 = CARTESIAN_POINT ( 'NONE',  ( 0.0000000000000000000, 2.345000000000028617, 0.0000000000000000000 ) ) ;
#182 = ORIENTED_EDGE ( 'NONE', *, *, #115, .F. ) ;
#183 = AXIS2_PLACEMENT_3D ( 'NONE', #177, #239, #165 ) ;
#184 = ORIENTED_EDGE ( 'NONE', *, *, #28, .T. ) ;
#185 = CARTESIAN_POINT ( 'NONE',  ( 4.640310625517122686E-14, -1.627601869546842323E-15, 13.29037785163887442 ) ) ;
#186 = APPROVAL ( #40, 'UNSPECIFIED' ) ;
#187 = EDGE_LOOP ( 'NONE', ( #57 ) ) ;
#188 = CC_DESIGN_APPROVAL ( #13, ( #45 ) ) ;
#189 = PLANE ( 'NONE',  #114 ) ;
#190 = CALENDAR_DATE ( 2021, 2, 12 ) ;
#191 = FACE_OUTER_BOUND ( 'NONE', #205, .T. ) ;
#192 = CC_DESIGN_PERSON_AND_ORGANIZATION_ASSIGNMENT ( #108, #4, ( #45 ) ) ;
#193 = DIRECTION ( 'NONE',  ( 0.0000000000000000000, 1.000000000000000000, 0.0000000000000000000 ) ) ;
#194 = DIRECTION ( 'NONE',  ( -3.491481338843133355E-15, 1.224646799147353207E-16, -1.000000000000000000 ) ) ;
#195 = APPROVAL_PERSON_ORGANIZATION ( #208, #186, #127 ) ;
#196 = DIRECTION ( 'NONE',  ( 4.275831445896958607E-31, 1.000000000000000000, 1.224646799147353207E-16 ) ) ;
#197 = PRODUCT_DEFINITION ( 'UNKNOWN', '', #45, #218 ) ;
#198 = APPLICATION_CONTEXT ( 'configuration controlled 3d designs of mechanical parts and assemblies' ) ;
#199 = DATE_AND_TIME ( #163, #120 ) ;
#200 = AXIS2_PLACEMENT_3D ( 'NONE', #117, #21, #128 ) ;
#201 = CALENDAR_DATE ( 2021, 2, 12 ) ;
#202 = ORIENTED_EDGE ( 'NONE', *, *, #133, .T. ) ;
#203 = ADVANCED_FACE ( 'NONE', ( #191 ), #211, .T. ) ;
#204 = DATE_AND_TIME ( #129, #143 ) ;
#205 = EDGE_LOOP ( 'NONE', ( #121 ) ) ;
#206 = PERSON_AND_ORGANIZATION ( #89, #210 ) ;
#207 = FACE_OUTER_BOUND ( 'NONE', #2, .T. ) ;
#208 = PERSON_AND_ORGANIZATION ( #89, #210 ) ;
#209 = EDGE_CURVE ( 'NONE', #124, #124, #37, .T. ) ;
#210 = ORGANIZATION ( 'UNSPECIFIED', 'UNSPECIFIED', '' ) ;
#211 = PLANE ( 'NONE',  #29 ) ;
#212 = FACE_OUTER_BOUND ( 'NONE', #71, .T. ) ;
#213 = DIRECTION ( 'NONE',  ( -3.491481338843133355E-15, 1.224646799147353207E-16, -1.000000000000000000 ) ) ;
#214 = DIRECTION ( 'NONE',  ( -3.491481338843133355E-15, 1.224646799147353207E-16, -1.000000000000000000 ) ) ;
#215 = CC_DESIGN_PERSON_AND_ORGANIZATION_ASSIGNMENT ( #206, #78, ( #83 ) ) ;
#216 =( LENGTH_UNIT ( ) NAMED_UNIT ( * ) SI_UNIT ( .MILLI., .METRE. ) );
#217 = MANIFOLD_SOLID_BREP ( 'Corps-Déplacer/Copier1[1]', #3 ) ;
#218 = DESIGN_CONTEXT ( 'detailed design', #243, 'design' ) ;
#219 = APPROVAL_STATUS ( 'not_yet_approved' ) ;
#220 = ORIENTED_EDGE ( 'NONE', *, *, #180, .T. ) ;
#221 = LOCAL_TIME ( 13, 57, 36.00000000000000000, #152 ) ;
#222 = COORDINATED_UNIVERSAL_TIME_OFFSET ( 1, 0, .AHEAD. ) ;
#223 = EDGE_LOOP ( 'NONE', ( #107 ) ) ;
#224 = VERTEX_POINT ( 'NONE', #181 ) ;
#225 = MANIFOLD_SOLID_BREP ( 'Corps-Déplacer/Copier1[2]', #134 ) ;
#226 = CIRCLE ( 'NONE', #19, 2.745000000000029861 ) ;
#227 = PRODUCT_DEFINITION_SHAPE ( 'NONE', 'NONE',  #197 ) ;
#228 = DIRECTION ( 'NONE',  ( -3.491481338843133355E-15, 1.224646799147353207E-16, -1.000000000000000000 ) ) ;
#229 = EDGE_CURVE ( 'NONE', #85, #85, #232, .T. ) ;
#230 = DIRECTION ( 'NONE',  ( -4.275831445896958607E-31, -1.000000000000000000, -1.224646799147353207E-16 ) ) ;
#231 = APPROVAL_DATE_TIME ( #204, #186 ) ;
#232 = CIRCLE ( 'NONE', #236, 2.745000000000029861 ) ;
#233 = DIRECTION ( 'NONE',  ( 0.0000000000000000000, 1.000000000000000000, 0.0000000000000000000 ) ) ;
#234 = DIRECTION ( 'NONE',  ( 0.0000000000000000000, 1.000000000000000000, 0.0000000000000000000 ) ) ;
#235 = DIRECTION ( 'NONE',  ( 4.275831445896957731E-31, 1.000000000000000000, 1.224646799147352961E-16 ) ) ;
#236 = AXIS2_PLACEMENT_3D ( 'NONE', #43, #10, #64 ) ;
#237 = DIRECTION ( 'NONE',  ( 0.0000000000000000000, 0.0000000000000000000, 1.000000000000000000 ) ) ;
#238 = COORDINATED_UNIVERSAL_TIME_OFFSET ( 1, 0, .AHEAD. ) ;
#239 = DIRECTION ( 'NONE',  ( 3.491481338843133355E-15, -1.224646799147353207E-16, 1.000000000000000000 ) ) ;
#240 = EDGE_LOOP ( 'NONE', ( #184 ) ) ;
#241 = APPROVAL_PERSON_ORGANIZATION ( #141, #84, #161 ) ;
#242 = ADVANCED_FACE ( 'NONE', ( #44, #113 ), #58, .T. ) ;
#243 = APPLICATION_CONTEXT ( 'configuration controlled 3d designs of mechanical parts and assemblies' ) ;
ENDSEC;
END-ISO-10303-21;
