ISO-10303-21;
HEADER;
FILE_DESCRIPTION (( 'STEP AP203' ),
    '1' );
FILE_NAME ('321774.step',
    '2021-12-02T12:57:35',
    ( '' ),
    ( '' ),
    'SwSTEP 2.0',
    'SolidWorks 2019',
    '' );
FILE_SCHEMA (( 'CONFIG_CONTROL_DESIGN' ));
ENDSEC;

DATA;
#1 = CYLINDRICAL_SURFACE ( 'NONE', #181, 2.740000000000029967 ) ;
#2 = DIRECTION ( 'NONE',  ( -3.491481338843133355E-15, 1.224646799147353207E-16, -1.000000000000000000 ) ) ;
#3 = AXIS2_PLACEMENT_3D ( 'NONE', #208, #169, #131 ) ;
#4 = ORIENTED_EDGE ( 'NONE', *, *, #230, .T. ) ;
#5 = FACE_OUTER_BOUND ( 'NONE', #58, .T. ) ;
#6 = FACE_OUTER_BOUND ( 'NONE', #41, .T. ) ;
#7 = PERSON_AND_ORGANIZATION_ROLE ( 'design_owner' ) ;
#8 = AXIS2_PLACEMENT_3D ( 'NONE', #164, #40, #37 ) ;
#9 = CIRCLE ( 'NONE', #85, 1.600000000000000977 ) ;
#10 = VERTEX_POINT ( 'NONE', #155 ) ;
#11 = ADVANCED_FACE ( 'NONE', ( #20 ), #243, .T. ) ;
#12 = APPROVAL_STATUS ( 'not_yet_approved' ) ;
#13 = CARTESIAN_POINT ( 'NONE',  ( 2.779219145719134403E-13, -9.748188521212932624E-15, 79.60000000000000853 ) ) ;
#14 = AXIS2_PLACEMENT_3D ( 'NONE', #39, #111, #190 ) ;
#15 = APPROVAL ( #12, 'UNSPECIFIED' ) ;
#16 = APPROVAL_DATE_TIME ( #217, #53 ) ;
#17 = PERSON_AND_ORGANIZATION ( #91, #200 ) ;
#18 = CC_DESIGN_PERSON_AND_ORGANIZATION_ASSIGNMENT ( #17, #216, ( #101 ) ) ;
#19 = SECURITY_CLASSIFICATION ( '', '', #56 ) ;
#20 = FACE_OUTER_BOUND ( 'NONE', #178, .T. ) ;
#21 = PRODUCT ( '321774', '321774', '', ( #51 ) ) ;
#22 = DIRECTION ( 'NONE',  ( 4.217364841723827687E-31, 1.000000000000000000, 1.187082670604553826E-16 ) ) ;
#23 = DIRECTION ( 'NONE',  ( 3.491481338843133355E-15, -1.224646799147353207E-16, 1.000000000000000000 ) ) ;
#24 = CARTESIAN_POINT ( 'NONE',  ( 2.793185071074506684E-13, -9.797174393178826052E-15, 80.00000000000000000 ) ) ;
#25 = VERTEX_POINT ( 'NONE', #172 ) ;
#26 = CIRCLE ( 'NONE', #33, 2.340000000000028724 ) ;
#27 = CARTESIAN_POINT ( 'NONE',  ( 0.0000000000000000000, 2.340000000000028724, 0.0000000000000000000 ) ) ;
#28 = VERTEX_POINT ( 'NONE', #235 ) ;
#29 = ADVANCED_FACE ( 'NONE', ( #224 ), #222, .F. ) ;
#30 = FACE_BOUND ( 'NONE', #185, .T. ) ;
#31 = EDGE_LOOP ( 'NONE', ( #145 ) ) ;
#32 = EDGE_CURVE ( 'NONE', #176, #176, #9, .T. ) ;
#33 = AXIS2_PLACEMENT_3D ( 'NONE', #128, #149, #92 ) ;
#34 = PERSON_AND_ORGANIZATION ( #91, #200 ) ;
#35 = APPROVAL_STATUS ( 'not_yet_approved' ) ;
#36 = AXIS2_PLACEMENT_3D ( 'NONE', #114, #64, #231 ) ;
#37 = DIRECTION ( 'NONE',  ( 0.0000000000000000000, 1.000000000000000000, 0.0000000000000000000 ) ) ;
#38 = CC_DESIGN_SECURITY_CLASSIFICATION ( #19, ( #101 ) ) ;
#39 = CARTESIAN_POINT ( 'NONE',  ( 2.793185071074506684E-13, -9.797174393178826052E-15, 80.00000000000000000 ) ) ;
#40 = DIRECTION ( 'NONE',  ( -3.491481338843133355E-15, 1.224646799147353207E-16, -1.000000000000000000 ) ) ;
#41 = EDGE_LOOP ( 'NONE', ( #201 ) ) ;
#42 = AXIS2_PLACEMENT_3D ( 'NONE', #78, #126, #189 ) ;
#43 = AXIS2_PLACEMENT_3D ( 'NONE', #103, #179, #154 ) ;
#44 = FACE_OUTER_BOUND ( 'NONE', #63, .T. ) ;
#45 = APPLICATION_PROTOCOL_DEFINITION ( 'international standard', 'config_control_design', 1994, #50 ) ;
#46 = DATE_AND_TIME ( #153, #121 ) ;
#47 = APPROVAL_PERSON_ORGANIZATION ( #102, #15, #142 ) ;
#48 = PERSON_AND_ORGANIZATION ( #91, #200 ) ;
#49 = VERTEX_POINT ( 'NONE', #234 ) ;
#50 = APPLICATION_CONTEXT ( 'configuration controlled 3d designs of mechanical parts and assemblies' ) ;
#51 = MECHANICAL_CONTEXT ( 'NONE', #212, 'mechanical' ) ;
#52 = CLOSED_SHELL ( 'NONE', ( #183, #11, #132, #236 ) ) ;
#53 = APPROVAL ( #35, 'UNSPECIFIED' ) ;
#54 = CALENDAR_DATE ( 2021, 2, 12 ) ;
#55 = EDGE_CURVE ( 'NONE', #196, #196, #220, .T. ) ;
#56 = SECURITY_CLASSIFICATION_LEVEL ( 'unclassified' ) ;
#57 = DIRECTION ( 'NONE',  ( 4.275831445896958607E-31, 1.000000000000000000, 1.224646799147353207E-16 ) ) ;
#58 = EDGE_LOOP ( 'NONE', ( #213 ) ) ;
#59 = CARTESIAN_POINT ( 'NONE',  ( 4.189777606611760026E-14, 2.054670902246765395E-32, 12.00000000000000000 ) ) ;
#60 = DIRECTION ( 'NONE',  ( -3.491481338843133355E-15, 1.224646799147353207E-16, -1.000000000000000000 ) ) ;
#61 = CC_DESIGN_PERSON_AND_ORGANIZATION_ASSIGNMENT ( #34, #157, ( #19 ) ) ;
#62 = FACE_BOUND ( 'NONE', #81, .T. ) ;
#63 = EDGE_LOOP ( 'NONE', ( #97 ) ) ;
#64 = DIRECTION ( 'NONE',  ( -3.491481338843133355E-15, 1.224646799147353207E-16, -1.000000000000000000 ) ) ;
#65 = ADVANCED_FACE ( 'NONE', ( #62, #171 ), #161, .T. ) ;
#66 = COORDINATED_UNIVERSAL_TIME_OFFSET ( 1, 0, .AHEAD. ) ;
#67 =( NAMED_UNIT ( * ) PLANE_ANGLE_UNIT ( ) SI_UNIT ( $, .RADIAN. ) );
#68 = CIRCLE ( 'NONE', #130, 2.740000000000029967 ) ;
#69 = CC_DESIGN_APPROVAL ( #53, ( #19 ) ) ;
#70 = COORDINATED_UNIVERSAL_TIME_OFFSET ( 1, 0, .AHEAD. ) ;
#71 = DIRECTION ( 'NONE',  ( -3.491481338843133355E-15, 1.224646799147353207E-16, -1.000000000000000000 ) ) ;
#72 = EDGE_LOOP ( 'NONE', ( #241 ) ) ;
#73 = EDGE_LOOP ( 'NONE', ( #136 ) ) ;
#74 = CARTESIAN_POINT ( 'NONE',  ( 0.0000000000000000000, 0.0000000000000000000, 0.0000000000000000000 ) ) ;
#75 = CARTESIAN_POINT ( 'NONE',  ( 4.189777606611760026E-14, -1.469576158976823947E-15, 12.00000000000000000 ) ) ;
#76 = CC_DESIGN_APPROVAL ( #15, ( #101 ) ) ;
#77 = DIRECTION ( 'NONE',  ( 3.491481338843133355E-15, -1.224646799147353207E-16, 1.000000000000000000 ) ) ;
#78 = CARTESIAN_POINT ( 'NONE',  ( 2.793185071074506684E-13, 1.199807826129472128E-32, 80.00000000000000000 ) ) ;
#79 = ADVANCED_FACE ( 'NONE', ( #5, #192 ), #203, .T. ) ;
#80 = APPROVAL_DATE_TIME ( #46, #141 ) ;
#81 = EDGE_LOOP ( 'NONE', ( #170 ) ) ;
#82 = VERTEX_POINT ( 'NONE', #27 ) ;
#83 =( LENGTH_UNIT ( ) NAMED_UNIT ( * ) SI_UNIT ( .MILLI., .METRE. ) );
#84 = DIRECTION ( 'NONE',  ( 0.0000000000000000000, 1.000000000000000000, 0.0000000000000000000 ) ) ;
#85 = AXIS2_PLACEMENT_3D ( 'NONE', #24, #148, #112 ) ;
#86 = AXIS2_PLACEMENT_3D ( 'NONE', #119, #199, #137 ) ;
#87 = ORIENTED_EDGE ( 'NONE', *, *, #152, .F. ) ;
#88 = DIRECTION ( 'NONE',  ( -3.491481338843133355E-15, 1.224646799147353207E-16, -1.000000000000000000 ) ) ;
#89 = PERSON_AND_ORGANIZATION_ROLE ( 'design_supplier' ) ;
#90 = DESIGN_CONTEXT ( 'detailed design', #50, 'design' ) ;
#91 = PERSON ( 'UNSPECIFIED', 'UNSPECIFIED', 'UNSPECIFIED', ('UNSPECIFIED'), ('UNSPECIFIED'), ('UNSPECIFIED') ) ;
#92 = DIRECTION ( 'NONE',  ( 4.275831445896958607E-31, 1.000000000000000000, 1.224646799147353207E-16 ) ) ;
#93 = PLANE ( 'NONE',  #36 ) ;
#94 = CC_DESIGN_PERSON_AND_ORGANIZATION_ASSIGNMENT ( #48, #115, ( #135 ) ) ;
#95 = DIRECTION ( 'NONE',  ( -3.491481338843133355E-15, 1.224646799147353207E-16, -1.000000000000000000 ) ) ;
#96 = DIRECTION ( 'NONE',  ( -4.275831445896958607E-31, -1.000000000000000000, -1.224646799147353207E-16 ) ) ;
#97 = ORIENTED_EDGE ( 'NONE', *, *, #152, .T. ) ;
#98 = ORIENTED_EDGE ( 'NONE', *, *, #194, .F. ) ;
#99 = PERSON_AND_ORGANIZATION ( #91, #200 ) ;
#100 = CALENDAR_DATE ( 2021, 2, 12 ) ;
#101 = PRODUCT_DEFINITION_FORMATION_WITH_SPECIFIED_SOURCE ( 'ANY', '', #21, .NOT_KNOWN. ) ;
#102 = PERSON_AND_ORGANIZATION ( #91, #200 ) ;
#103 = CARTESIAN_POINT ( 'NONE',  ( -1.000544558339900565E-30, 3.509437891428789936E-32, -2.865673510004841575E-16 ) ) ;
#104 = DATE_AND_TIME ( #120, #221 ) ;
#105 = EDGE_CURVE ( 'NONE', #10, #10, #174, .T. ) ;
#106 = AXIS2_PLACEMENT_3D ( 'NONE', #59, #23, #96 ) ;
#107 = LOCAL_TIME ( 13, 57, 35.00000000000000000, #156 ) ;
#108 = UNCERTAINTY_MEASURE_WITH_UNIT (LENGTH_MEASURE( 1.000000000000000082E-05 ), #83, 'distance_accuracy_value', 'NONE');
#109 = ORIENTED_EDGE ( 'NONE', *, *, #32, .T. ) ;
#110 = PLANE ( 'NONE',  #42 ) ;
#111 = DIRECTION ( 'NONE',  ( -3.491481338843133355E-15, 1.224646799147353207E-16, -1.000000000000000000 ) ) ;
#112 = DIRECTION ( 'NONE',  ( 0.0000000000000000000, 1.000000000000000000, 0.0000000000000000000 ) ) ;
#113 = CARTESIAN_POINT ( 'NONE',  ( 4.189777606611760026E-14, 2.054670902246765395E-32, 12.00000000000000000 ) ) ;
#114 = CARTESIAN_POINT ( 'NONE',  ( -5.002722791699502824E-31, 1.754718945714394968E-32, -1.432836755002420787E-16 ) ) ;
#115 = PERSON_AND_ORGANIZATION_ROLE ( 'creator' ) ;
#116 = PRODUCT_RELATED_PRODUCT_CATEGORY ( 'detail', '', ( #21 ) ) ;
#117 = APPROVAL_PERSON_ORGANIZATION ( #177, #141, #151 ) ;
#118 = ORIENTED_EDGE ( 'NONE', *, *, #55, .T. ) ;
#119 = CARTESIAN_POINT ( 'NONE',  ( 0.0000000000000000000, 0.0000000000000000000, 0.0000000000000000000 ) ) ;
#120 = CALENDAR_DATE ( 2021, 2, 12 ) ;
#121 = LOCAL_TIME ( 13, 57, 35.00000000000000000, #232 ) ;
#122 = ADVANCED_FACE ( 'NONE', ( #6 ), #110, .F. ) ;
#123 = CARTESIAN_POINT ( 'NONE',  ( 1.396592535537252159E-15, -4.898587196589408145E-17, 0.3999999999999996336 ) ) ;
#124 = MANIFOLD_SOLID_BREP ( 'Corps-Déplacer/Copier1[1]', #150 ) ;
#125 = DIRECTION ( 'NONE',  ( 4.275831445896959482E-31, 1.000000000000000000, 1.224646799147353207E-16 ) ) ;
#126 = DIRECTION ( 'NONE',  ( -3.491481338843133355E-15, 1.224646799147353207E-16, -1.000000000000000000 ) ) ;
#127 = EDGE_LOOP ( 'NONE', ( #188 ) ) ;
#128 = CARTESIAN_POINT ( 'NONE',  ( -1.000544558339900565E-30, 3.509437891428789936E-32, -2.865673510004841575E-16 ) ) ;
#129 = ADVANCED_BREP_SHAPE_REPRESENTATION ( '321774', ( #124, #205, #86 ), #143 ) ;
#130 = AXIS2_PLACEMENT_3D ( 'NONE', #165, #2, #207 ) ;
#131 = DIRECTION ( 'NONE',  ( 0.0000000000000000000, 1.000000000000000000, 0.0000000000000000000 ) ) ;
#132 = ADVANCED_FACE ( 'NONE', ( #44 ), #93, .T. ) ;
#133 = DATE_AND_TIME ( #100, #168 ) ;
#134 = CARTESIAN_POINT ( 'NONE',  ( 1.396592535537253342E-15, 2.740000000000029967, 0.3999999999999999667 ) ) ;
#135 = PRODUCT_DEFINITION ( 'UNKNOWN', '', #101, #90 ) ;
#136 = ORIENTED_EDGE ( 'NONE', *, *, #223, .T. ) ;
#137 = DIRECTION ( 'NONE',  ( 1.000000000000000000, 0.0000000000000000000, 0.0000000000000000000 ) ) ;
#138 = AXIS2_PLACEMENT_3D ( 'NONE', #144, #95, #57 ) ;
#139 = AXIS2_PLACEMENT_3D ( 'NONE', #123, #71, #22 ) ;
#140 = CALENDAR_DATE ( 2021, 2, 12 ) ;
#141 = APPROVAL ( #197, 'UNSPECIFIED' ) ;
#142 = APPROVAL_ROLE ( '' ) ;
#143 =( GEOMETRIC_REPRESENTATION_CONTEXT ( 3 ) GLOBAL_UNCERTAINTY_ASSIGNED_CONTEXT ( ( #108 ) ) GLOBAL_UNIT_ASSIGNED_CONTEXT ( ( #83, #67, #233 ) ) REPRESENTATION_CONTEXT ( 'NONE', 'WORKASPACE' ) );
#144 = CARTESIAN_POINT ( 'NONE',  ( 0.0000000000000000000, 0.0000000000000000000, 0.0000000000000000000 ) ) ;
#145 = ORIENTED_EDGE ( 'NONE', *, *, #223, .F. ) ;
#146 = DIRECTION ( 'NONE',  ( -3.491481338843133355E-15, 1.224646799147353207E-16, -1.000000000000000000 ) ) ;
#147 = CONICAL_SURFACE ( 'NONE', #43, 2.340000000000028724, 0.7853981633974502774 ) ;
#148 = DIRECTION ( 'NONE',  ( -3.491481338843133355E-15, 1.224646799147353207E-16, -1.000000000000000000 ) ) ;
#149 = DIRECTION ( 'NONE',  ( -3.491481338843133355E-15, 1.224646799147353207E-16, -1.000000000000000000 ) ) ;
#150 = CLOSED_SHELL ( 'NONE', ( #29, #65, #79, #191, #122 ) ) ;
#151 = APPROVAL_ROLE ( '' ) ;
#152 = EDGE_CURVE ( 'NONE', #82, #82, #26, .T. ) ;
#153 = CALENDAR_DATE ( 2021, 2, 12 ) ;
#154 = DIRECTION ( 'NONE',  ( -4.275831445896958607E-31, -1.000000000000000000, -1.224646799147353207E-16 ) ) ;
#155 = CARTESIAN_POINT ( 'NONE',  ( 4.637286913980845182E-14, 1.999999999999990452, 13.28171759760103221 ) ) ;
#156 = COORDINATED_UNIVERSAL_TIME_OFFSET ( 1, 0, .AHEAD. ) ;
#157 = PERSON_AND_ORGANIZATION_ROLE ( 'classification_officer' ) ;
#158 = APPROVAL_PERSON_ORGANIZATION ( #202, #53, #182 ) ;
#159 = DATE_AND_TIME ( #140, #210 ) ;
#160 = CC_DESIGN_PERSON_AND_ORGANIZATION_ASSIGNMENT ( #99, #7, ( #21 ) ) ;
#161 = CONICAL_SURFACE ( 'NONE', #3, 2.740000000000029967, 0.5235987755983001479 ) ;
#162 = CC_DESIGN_APPROVAL ( #141, ( #135 ) ) ;
#163 = FACE_OUTER_BOUND ( 'NONE', #127, .T. ) ;
#164 = CARTESIAN_POINT ( 'NONE',  ( 4.637286913980845182E-14, -1.626541294308117674E-15, 13.28171759760103221 ) ) ;
#165 = CARTESIAN_POINT ( 'NONE',  ( 4.189777606611760026E-14, -1.469576158976823947E-15, 12.00000000000000000 ) ) ;
#166 = CONICAL_SURFACE ( 'NONE', #14, 1.600000000000000977, 0.7853981633974512766 ) ;
#167 = CC_DESIGN_PERSON_AND_ORGANIZATION_ASSIGNMENT ( #219, #89, ( #101 ) ) ;
#168 = LOCAL_TIME ( 13, 57, 35.00000000000000000, #66 ) ;
#169 = DIRECTION ( 'NONE',  ( -3.491481338843133355E-15, 1.224646799147353207E-16, -1.000000000000000000 ) ) ;
#170 = ORIENTED_EDGE ( 'NONE', *, *, #105, .T. ) ;
#171 = FACE_OUTER_BOUND ( 'NONE', #31, .T. ) ;
#172 = CARTESIAN_POINT ( 'NONE',  ( 2.779219145719134403E-13, 1.999999999999991340, 79.60000000000000853 ) ) ;
#173 = CC_DESIGN_DATE_AND_TIME_ASSIGNMENT ( #159, #218, ( #19 ) ) ;
#174 = CIRCLE ( 'NONE', #8, 1.999999999999992228 ) ;
#175 = CIRCLE ( 'NONE', #239, 2.000000000000000888 ) ;
#176 = VERTEX_POINT ( 'NONE', #211 ) ;
#177 = PERSON_AND_ORGANIZATION ( #91, #200 ) ;
#178 = EDGE_LOOP ( 'NONE', ( #98 ) ) ;
#179 = DIRECTION ( 'NONE',  ( 3.491481338843133355E-15, -1.224646799147353207E-16, 1.000000000000000000 ) ) ;
#180 = EDGE_LOOP ( 'NONE', ( #4 ) ) ;
#181 = AXIS2_PLACEMENT_3D ( 'NONE', #74, #146, #125 ) ;
#182 = APPROVAL_ROLE ( '' ) ;
#183 = ADVANCED_FACE ( 'NONE', ( #195, #163 ), #1, .T. ) ;
#184 = AXIS2_PLACEMENT_3D ( 'NONE', #75, #60, #206 ) ;
#185 = EDGE_LOOP ( 'NONE', ( #87 ) ) ;
#186 = CC_DESIGN_DATE_AND_TIME_ASSIGNMENT ( #133, #209, ( #135 ) ) ;
#187 = AXIS2_PLACEMENT_3D ( 'NONE', #113, #77, #228 ) ;
#188 = ORIENTED_EDGE ( 'NONE', *, *, #55, .F. ) ;
#189 = DIRECTION ( 'NONE',  ( 4.275831445896958607E-31, 1.000000000000000000, 1.224646799147353207E-16 ) ) ;
#190 = DIRECTION ( 'NONE',  ( 0.0000000000000000000, 1.000000000000000000, 0.0000000000000000000 ) ) ;
#191 = ADVANCED_FACE ( 'NONE', ( #229, #204 ), #166, .T. ) ;
#192 = FACE_OUTER_BOUND ( 'NONE', #180, .T. ) ;
#193 = EDGE_LOOP ( 'NONE', ( #215 ) ) ;
#194 = EDGE_CURVE ( 'NONE', #49, #49, #68, .T. ) ;
#195 = FACE_OUTER_BOUND ( 'NONE', #193, .T. ) ;
#196 = VERTEX_POINT ( 'NONE', #134 ) ;
#197 = APPROVAL_STATUS ( 'not_yet_approved' ) ;
#198 = FACE_OUTER_BOUND ( 'NONE', #237, .T. ) ;
#199 = DIRECTION ( 'NONE',  ( 0.0000000000000000000, 0.0000000000000000000, 1.000000000000000000 ) ) ;
#200 = ORGANIZATION ( 'UNSPECIFIED', 'UNSPECIFIED', '' ) ;
#201 = ORIENTED_EDGE ( 'NONE', *, *, #32, .F. ) ;
#202 = PERSON_AND_ORGANIZATION ( #91, #200 ) ;
#203 = CYLINDRICAL_SURFACE ( 'NONE', #138, 1.999999999999996669 ) ;
#204 = FACE_BOUND ( 'NONE', #227, .T. ) ;
#205 = MANIFOLD_SOLID_BREP ( 'Corps-Déplacer/Copier1[2]', #52 ) ;
#206 = DIRECTION ( 'NONE',  ( 0.0000000000000000000, 1.000000000000000000, 0.0000000000000000000 ) ) ;
#207 = DIRECTION ( 'NONE',  ( 0.0000000000000000000, 1.000000000000000000, 0.0000000000000000000 ) ) ;
#208 = CARTESIAN_POINT ( 'NONE',  ( 4.189777606611760026E-14, -1.469576158976823947E-15, 12.00000000000000000 ) ) ;
#209 = DATE_TIME_ROLE ( 'creation_date' ) ;
#210 = LOCAL_TIME ( 13, 57, 35.00000000000000000, #238 ) ;
#211 = CARTESIAN_POINT ( 'NONE',  ( 2.793185071074506684E-13, 1.599999999999991207, 80.00000000000000000 ) ) ;
#212 = APPLICATION_CONTEXT ( 'configuration controlled 3d designs of mechanical parts and assemblies' ) ;
#213 = ORIENTED_EDGE ( 'NONE', *, *, #105, .F. ) ;
#214 = APPLICATION_PROTOCOL_DEFINITION ( 'international standard', 'config_control_design', 1994, #212 ) ;
#215 = ORIENTED_EDGE ( 'NONE', *, *, #194, .T. ) ;
#216 = PERSON_AND_ORGANIZATION_ROLE ( 'creator' ) ;
#217 = DATE_AND_TIME ( #54, #107 ) ;
#218 = DATE_TIME_ROLE ( 'classification_date' ) ;
#219 = PERSON_AND_ORGANIZATION ( #91, #200 ) ;
#220 = CIRCLE ( 'NONE', #139, 2.740000000000029967 ) ;
#221 = LOCAL_TIME ( 13, 57, 35.00000000000000000, #70 ) ;
#222 = PLANE ( 'NONE',  #187 ) ;
#223 = EDGE_CURVE ( 'NONE', #28, #28, #225, .T. ) ;
#224 = FACE_OUTER_BOUND ( 'NONE', #73, .T. ) ;
#225 = CIRCLE ( 'NONE', #184, 2.740000000000029967 ) ;
#226 = PRODUCT_DEFINITION_SHAPE ( 'NONE', 'NONE',  #135 ) ;
#227 = EDGE_LOOP ( 'NONE', ( #109 ) ) ;
#228 = DIRECTION ( 'NONE',  ( -4.275831445896958607E-31, -1.000000000000000000, -1.224646799147353207E-16 ) ) ;
#229 = FACE_OUTER_BOUND ( 'NONE', #72, .T. ) ;
#230 = EDGE_CURVE ( 'NONE', #25, #25, #175, .T. ) ;
#231 = DIRECTION ( 'NONE',  ( 4.275831445896958607E-31, 1.000000000000000000, 1.224646799147353207E-16 ) ) ;
#232 = COORDINATED_UNIVERSAL_TIME_OFFSET ( 1, 0, .AHEAD. ) ;
#233 =( NAMED_UNIT ( * ) SI_UNIT ( $, .STERADIAN. ) SOLID_ANGLE_UNIT ( ) );
#234 = CARTESIAN_POINT ( 'NONE',  ( 4.189777606611760026E-14, 2.740000000000029079, 12.00000000000000000 ) ) ;
#235 = CARTESIAN_POINT ( 'NONE',  ( 4.189777606611760026E-14, 2.740000000000029079, 12.00000000000000000 ) ) ;
#236 = ADVANCED_FACE ( 'NONE', ( #198, #30 ), #147, .T. ) ;
#237 = EDGE_LOOP ( 'NONE', ( #118 ) ) ;
#238 = COORDINATED_UNIVERSAL_TIME_OFFSET ( 1, 0, .AHEAD. ) ;
#239 = AXIS2_PLACEMENT_3D ( 'NONE', #13, #88, #84 ) ;
#240 = SHAPE_DEFINITION_REPRESENTATION ( #226, #129 ) ;
#241 = ORIENTED_EDGE ( 'NONE', *, *, #230, .F. ) ;
#242 = APPROVAL_DATE_TIME ( #104, #15 ) ;
#243 = PLANE ( 'NONE',  #106 ) ;
ENDSEC;
END-ISO-10303-21;
