ISO-10303-21;
HEADER;
FILE_DESCRIPTION (( 'STEP AP203' ),
    '1' );
FILE_NAME ('321773.step',
    '2021-12-02T12:57:34',
    ( '' ),
    ( '' ),
    'SwSTEP 2.0',
    'SolidWorks 2019',
    '' );
FILE_SCHEMA (( 'CONFIG_CONTROL_DESIGN' ));
ENDSEC;

DATA;
#1 = APPROVAL_PERSON_ORGANIZATION ( #234, #122, #163 ) ;
#2 = APPLICATION_PROTOCOL_DEFINITION ( 'international standard', 'config_control_design', 1994, #173 ) ;
#3 = VERTEX_POINT ( 'NONE', #11 ) ;
#4 = CONICAL_SURFACE ( 'NONE', #133, 2.335000000000028386, 0.7853981633974504994 ) ;
#5 = CARTESIAN_POINT ( 'NONE',  ( 2.793185071074506684E-13, 1.599999999999991207, 80.00000000000000000 ) ) ;
#6 = CC_DESIGN_PERSON_AND_ORGANIZATION_ASSIGNMENT ( #105, #200, ( #38 ) ) ;
#7 =( LENGTH_UNIT ( ) NAMED_UNIT ( * ) SI_UNIT ( .MILLI., .METRE. ) );
#8 = FACE_OUTER_BOUND ( 'NONE', #70, .T. ) ;
#9 = AXIS2_PLACEMENT_3D ( 'NONE', #108, #87, #167 ) ;
#10 = PRODUCT_DEFINITION ( 'UNKNOWN', '', #38, #27 ) ;
#11 = CARTESIAN_POINT ( 'NONE',  ( 1.396592535537252553E-15, 2.735000000000030074, 0.3999999999999997446 ) ) ;
#12 = EDGE_LOOP ( 'NONE', ( #34 ) ) ;
#13 = EDGE_LOOP ( 'NONE', ( #126 ) ) ;
#14 = ADVANCED_FACE ( 'NONE', ( #198 ), #32, .F. ) ;
#15 = ORIENTED_EDGE ( 'NONE', *, *, #205, .F. ) ;
#16 = APPROVAL_ROLE ( '' ) ;
#17 = PERSON_AND_ORGANIZATION_ROLE ( 'creator' ) ;
#18 = CARTESIAN_POINT ( 'NONE',  ( -4.992033213084760467E-31, 1.750969546257740023E-32, -1.429775138004552349E-16 ) ) ;
#19 = PRODUCT ( '321773', '321773', '', ( #199 ) ) ;
#20 = CONICAL_SURFACE ( 'NONE', #63, 1.600000000000000977, 0.7853981633974512766 ) ;
#21 = FACE_OUTER_BOUND ( 'NONE', #203, .T. ) ;
#22 = CIRCLE ( 'NONE', #164, 1.999999999999992228 ) ;
#23 = DIRECTION ( 'NONE',  ( -4.275831445896959482E-31, -1.000000000000000000, -1.224646799147353207E-16 ) ) ;
#24 = FACE_OUTER_BOUND ( 'NONE', #181, .T. ) ;
#25 = DIRECTION ( 'NONE',  ( 0.0000000000000000000, 1.000000000000000000, 0.0000000000000000000 ) ) ;
#26 = CIRCLE ( 'NONE', #125, 2.735000000000030074 ) ;
#27 = DESIGN_CONTEXT ( 'detailed design', #226, 'design' ) ;
#28 = PERSON_AND_ORGANIZATION ( #83, #145 ) ;
#29 = CARTESIAN_POINT ( 'NONE',  ( 4.189777606611760026E-14, 2.050921502790110997E-32, 12.00000000000000000 ) ) ;
#30 = PERSON_AND_ORGANIZATION_ROLE ( 'design_owner' ) ;
#31 = SECURITY_CLASSIFICATION_LEVEL ( 'unclassified' ) ;
#32 = PLANE ( 'NONE',  #116 ) ;
#33 = ADVANCED_FACE ( 'NONE', ( #48 ), #182, .F. ) ;
#34 = ORIENTED_EDGE ( 'NONE', *, *, #185, .T. ) ;
#35 = EDGE_LOOP ( 'NONE', ( #219 ) ) ;
#36 = DATE_AND_TIME ( #220, #193 ) ;
#37 = EDGE_CURVE ( 'NONE', #3, #3, #202, .T. ) ;
#38 = PRODUCT_DEFINITION_FORMATION_WITH_SPECIFIED_SOURCE ( 'ANY', '', #19, .NOT_KNOWN. ) ;
#39 = LOCAL_TIME ( 13, 57, 34.00000000000000000, #62 ) ;
#40 = DIRECTION ( 'NONE',  ( 0.0000000000000000000, 1.000000000000000000, 0.0000000000000000000 ) ) ;
#41 = CYLINDRICAL_SURFACE ( 'NONE', #129, 2.735000000000030074 ) ;
#42 = LOCAL_TIME ( 13, 57, 34.00000000000000000, #241 ) ;
#43 = CARTESIAN_POINT ( 'NONE',  ( 2.779219145719134403E-13, -9.748188521212932624E-15, 79.60000000000000853 ) ) ;
#44 = DIRECTION ( 'NONE',  ( 0.0000000000000000000, 1.000000000000000000, 0.0000000000000000000 ) ) ;
#45 = FACE_OUTER_BOUND ( 'NONE', #180, .T. ) ;
#46 = PERSON_AND_ORGANIZATION ( #83, #145 ) ;
#47 = SHAPE_DEFINITION_REPRESENTATION ( #225, #239 ) ;
#48 = FACE_OUTER_BOUND ( 'NONE', #238, .T. ) ;
#49 = CC_DESIGN_PERSON_AND_ORGANIZATION_ASSIGNMENT ( #149, #17, ( #10 ) ) ;
#50 = PERSON_AND_ORGANIZATION ( #83, #145 ) ;
#51 = EDGE_LOOP ( 'NONE', ( #89 ) ) ;
#52 = APPROVAL ( #237, 'UNSPECIFIED' ) ;
#53 = DIRECTION ( 'NONE',  ( 0.0000000000000000000, 1.000000000000000000, 0.0000000000000000000 ) ) ;
#54 = CARTESIAN_POINT ( 'NONE',  ( 0.0000000000000000000, 0.0000000000000000000, 0.0000000000000000000 ) ) ;
#55 =( GEOMETRIC_REPRESENTATION_CONTEXT ( 3 ) GLOBAL_UNCERTAINTY_ASSIGNED_CONTEXT ( ( #218 ) ) GLOBAL_UNIT_ASSIGNED_CONTEXT ( ( #7, #138, #118 ) ) REPRESENTATION_CONTEXT ( 'NONE', 'WORKASPACE' ) );
#56 = CC_DESIGN_PERSON_AND_ORGANIZATION_ASSIGNMENT ( #212, #30, ( #19 ) ) ;
#57 = APPROVAL_PERSON_ORGANIZATION ( #110, #52, #141 ) ;
#58 = CARTESIAN_POINT ( 'NONE',  ( 0.0000000000000000000, 0.0000000000000000000, 0.0000000000000000000 ) ) ;
#59 = CARTESIAN_POINT ( 'NONE',  ( 4.189777606611760026E-14, 2.735000000000028741, 12.00000000000000000 ) ) ;
#60 = CARTESIAN_POINT ( 'NONE',  ( 4.634263202444567046E-14, -1.625480719069392629E-15, 13.27305734356318645 ) ) ;
#61 = VERTEX_POINT ( 'NONE', #59 ) ;
#62 = COORDINATED_UNIVERSAL_TIME_OFFSET ( 1, 0, .AHEAD. ) ;
#63 = AXIS2_PLACEMENT_3D ( 'NONE', #177, #102, #158 ) ;
#64 = EDGE_CURVE ( 'NONE', #82, #82, #189, .T. ) ;
#65 = COORDINATED_UNIVERSAL_TIME_OFFSET ( 1, 0, .AHEAD. ) ;
#66 = ORIENTED_EDGE ( 'NONE', *, *, #185, .F. ) ;
#67 = ORIENTED_EDGE ( 'NONE', *, *, #190, .F. ) ;
#68 = DATE_AND_TIME ( #187, #97 ) ;
#69 = AXIS2_PLACEMENT_3D ( 'NONE', #136, #121, #40 ) ;
#70 = EDGE_LOOP ( 'NONE', ( #150 ) ) ;
#71 = DATE_AND_TIME ( #236, #42 ) ;
#72 = DIRECTION ( 'NONE',  ( 4.275831445896958607E-31, 1.000000000000000000, 1.224646799147353207E-16 ) ) ;
#73 = COORDINATED_UNIVERSAL_TIME_OFFSET ( 1, 0, .AHEAD. ) ;
#74 = CC_DESIGN_PERSON_AND_ORGANIZATION_ASSIGNMENT ( #46, #107, ( #115 ) ) ;
#75 = LOCAL_TIME ( 13, 57, 34.00000000000000000, #124 ) ;
#76 = CC_DESIGN_PERSON_AND_ORGANIZATION_ASSIGNMENT ( #50, #217, ( #38 ) ) ;
#77 = FACE_OUTER_BOUND ( 'NONE', #12, .T. ) ;
#78 = DIRECTION ( 'NONE',  ( 4.275831445896958607E-31, 1.000000000000000000, 1.224646799147353207E-16 ) ) ;
#79 = FACE_OUTER_BOUND ( 'NONE', #153, .T. ) ;
#80 = ADVANCED_FACE ( 'NONE', ( #114 ), #171, .T. ) ;
#81 = CARTESIAN_POINT ( 'NONE',  ( 4.189777606611760026E-14, 2.050921502790110997E-32, 12.00000000000000000 ) ) ;
#82 = VERTEX_POINT ( 'NONE', #176 ) ;
#83 = PERSON ( 'UNSPECIFIED', 'UNSPECIFIED', 'UNSPECIFIED', ('UNSPECIFIED'), ('UNSPECIFIED'), ('UNSPECIFIED') ) ;
#84 = APPROVAL_DATE_TIME ( #68, #172 ) ;
#85 = DIRECTION ( 'NONE',  ( -4.275831445896958607E-31, -1.000000000000000000, -1.224646799147353207E-16 ) ) ;
#86 = AXIS2_PLACEMENT_3D ( 'NONE', #18, #92, #72 ) ;
#87 = DIRECTION ( 'NONE',  ( -3.491481338843133355E-15, 1.224646799147353207E-16, -1.000000000000000000 ) ) ;
#88 = EDGE_LOOP ( 'NONE', ( #127 ) ) ;
#89 = ORIENTED_EDGE ( 'NONE', *, *, #205, .T. ) ;
#90 = DATE_AND_TIME ( #146, #39 ) ;
#91 = CIRCLE ( 'NONE', #227, 2.335000000000028386 ) ;
#92 = DIRECTION ( 'NONE',  ( -3.491481338843133355E-15, 1.224646799147353207E-16, -1.000000000000000000 ) ) ;
#93 = AXIS2_PLACEMENT_3D ( 'NONE', #81, #179, #210 ) ;
#94 = DIRECTION ( 'NONE',  ( 1.000000000000000000, 0.0000000000000000000, 0.0000000000000000000 ) ) ;
#95 = CC_DESIGN_DATE_AND_TIME_ASSIGNMENT ( #90, #170, ( #10 ) ) ;
#96 = DIRECTION ( 'NONE',  ( -3.491481338843133355E-15, 1.224646799147353207E-16, -1.000000000000000000 ) ) ;
#97 = LOCAL_TIME ( 13, 57, 34.00000000000000000, #65 ) ;
#98 = VERTEX_POINT ( 'NONE', #175 ) ;
#99 = FACE_OUTER_BOUND ( 'NONE', #201, .T. ) ;
#100 = ADVANCED_FACE ( 'NONE', ( #242, #154 ), #235, .T. ) ;
#101 = CARTESIAN_POINT ( 'NONE',  ( -9.984066426169520934E-31, 3.501939092515480046E-32, -2.859550276009104699E-16 ) ) ;
#102 = DIRECTION ( 'NONE',  ( -3.491481338843133355E-15, 1.224646799147353207E-16, -1.000000000000000000 ) ) ;
#103 = AXIS2_PLACEMENT_3D ( 'NONE', #223, #159, #44 ) ;
#104 = PRODUCT_RELATED_PRODUCT_CATEGORY ( 'detail', '', ( #19 ) ) ;
#105 = PERSON_AND_ORGANIZATION ( #83, #145 ) ;
#106 = DIRECTION ( 'NONE',  ( 3.491481338843133355E-15, -1.224646799147353207E-16, 1.000000000000000000 ) ) ;
#107 = PERSON_AND_ORGANIZATION_ROLE ( 'classification_officer' ) ;
#108 = CARTESIAN_POINT ( 'NONE',  ( 2.793185071074506684E-13, 1.199807826129472128E-32, 80.00000000000000000 ) ) ;
#109 = AXIS2_PLACEMENT_3D ( 'NONE', #43, #120, #119 ) ;
#110 = PERSON_AND_ORGANIZATION ( #83, #145 ) ;
#111 = APPROVAL_STATUS ( 'not_yet_approved' ) ;
#112 = ORIENTED_EDGE ( 'NONE', *, *, #166, .F. ) ;
#113 = DATE_AND_TIME ( #197, #75 ) ;
#114 = FACE_OUTER_BOUND ( 'NONE', #51, .T. ) ;
#115 = SECURITY_CLASSIFICATION ( '', '', #31 ) ;
#116 = AXIS2_PLACEMENT_3D ( 'NONE', #29, #106, #85 ) ;
#117 = CARTESIAN_POINT ( 'NONE',  ( -9.984066426169520934E-31, 3.501939092515480046E-32, -2.859550276009104699E-16 ) ) ;
#118 =( NAMED_UNIT ( * ) SI_UNIT ( $, .STERADIAN. ) SOLID_ANGLE_UNIT ( ) );
#119 = DIRECTION ( 'NONE',  ( 0.0000000000000000000, 1.000000000000000000, 0.0000000000000000000 ) ) ;
#120 = DIRECTION ( 'NONE',  ( -3.491481338843133355E-15, 1.224646799147353207E-16, -1.000000000000000000 ) ) ;
#121 = DIRECTION ( 'NONE',  ( -3.491481338843133355E-15, 1.224646799147353207E-16, -1.000000000000000000 ) ) ;
#122 = APPROVAL ( #151, 'UNSPECIFIED' ) ;
#123 = DIRECTION ( 'NONE',  ( 3.491481338843133355E-15, -1.224646799147353207E-16, 1.000000000000000000 ) ) ;
#124 = COORDINATED_UNIVERSAL_TIME_OFFSET ( 1, 0, .AHEAD. ) ;
#125 = AXIS2_PLACEMENT_3D ( 'NONE', #196, #96, #25 ) ;
#126 = ORIENTED_EDGE ( 'NONE', *, *, #190, .T. ) ;
#127 = ORIENTED_EDGE ( 'NONE', *, *, #166, .T. ) ;
#128 = ADVANCED_FACE ( 'NONE', ( #45, #194 ), #4, .T. ) ;
#129 = AXIS2_PLACEMENT_3D ( 'NONE', #161, #228, #231 ) ;
#130 = MANIFOLD_SOLID_BREP ( 'Corps-Déplacer/Copier1[1]', #183 ) ;
#131 = ORIENTED_EDGE ( 'NONE', *, *, #64, .F. ) ;
#132 = CARTESIAN_POINT ( 'NONE',  ( 4.189777606611760026E-14, -1.469576158976823947E-15, 12.00000000000000000 ) ) ;
#133 = AXIS2_PLACEMENT_3D ( 'NONE', #117, #123, #23 ) ;
#134 = DIRECTION ( 'NONE',  ( 0.0000000000000000000, 0.0000000000000000000, 1.000000000000000000 ) ) ;
#135 = AXIS2_PLACEMENT_3D ( 'NONE', #132, #204, #53 ) ;
#136 = CARTESIAN_POINT ( 'NONE',  ( 2.793185071074506684E-13, -9.797174393178826052E-15, 80.00000000000000000 ) ) ;
#137 = CC_DESIGN_APPROVAL ( #122, ( #38 ) ) ;
#138 =( NAMED_UNIT ( * ) PLANE_ANGLE_UNIT ( ) SI_UNIT ( $, .RADIAN. ) );
#139 = DIRECTION ( 'NONE',  ( -3.491481338843133355E-15, 1.224646799147353207E-16, -1.000000000000000000 ) ) ;
#140 = ADVANCED_FACE ( 'NONE', ( #79 ), #207, .T. ) ;
#141 = APPROVAL_ROLE ( '' ) ;
#142 = DIRECTION ( 'NONE',  ( -3.491481338843133355E-15, 1.224646799147353207E-16, -1.000000000000000000 ) ) ;
#143 = EDGE_LOOP ( 'NONE', ( #15 ) ) ;
#144 = AXIS2_PLACEMENT_3D ( 'NONE', #54, #134, #94 ) ;
#145 = ORGANIZATION ( 'UNSPECIFIED', 'UNSPECIFIED', '' ) ;
#146 = CALENDAR_DATE ( 2021, 2, 12 ) ;
#147 = CARTESIAN_POINT ( 'NONE',  ( 1.396592535537251370E-15, -4.898587196589405680E-17, 0.3999999999999994116 ) ) ;
#148 = ADVANCED_FACE ( 'NONE', ( #8, #24 ), #41, .T. ) ;
#149 = PERSON_AND_ORGANIZATION ( #83, #145 ) ;
#150 = ORIENTED_EDGE ( 'NONE', *, *, #209, .T. ) ;
#151 = APPROVAL_STATUS ( 'not_yet_approved' ) ;
#152 = AXIS2_PLACEMENT_3D ( 'NONE', #58, #142, #78 ) ;
#153 = EDGE_LOOP ( 'NONE', ( #186 ) ) ;
#154 = FACE_OUTER_BOUND ( 'NONE', #233, .T. ) ;
#155 = CC_DESIGN_APPROVAL ( #52, ( #10 ) ) ;
#156 = CIRCLE ( 'NONE', #109, 2.000000000000000888 ) ;
#157 = CARTESIAN_POINT ( 'NONE',  ( 4.634263202444567046E-14, 1.999999999999990452, 13.27305734356318645 ) ) ;
#158 = DIRECTION ( 'NONE',  ( 0.0000000000000000000, 1.000000000000000000, 0.0000000000000000000 ) ) ;
#159 = DIRECTION ( 'NONE',  ( -3.491481338843133355E-15, 1.224646799147353207E-16, -1.000000000000000000 ) ) ;
#160 = CC_DESIGN_SECURITY_CLASSIFICATION ( #115, ( #38 ) ) ;
#161 = CARTESIAN_POINT ( 'NONE',  ( 0.0000000000000000000, 0.0000000000000000000, 0.0000000000000000000 ) ) ;
#162 = VERTEX_POINT ( 'NONE', #157 ) ;
#163 = APPROVAL_ROLE ( '' ) ;
#164 = AXIS2_PLACEMENT_3D ( 'NONE', #60, #139, #195 ) ;
#165 = APPROVAL_DATE_TIME ( #36, #52 ) ;
#166 = EDGE_CURVE ( 'NONE', #162, #162, #22, .T. ) ;
#167 = DIRECTION ( 'NONE',  ( 4.275831445896958607E-31, 1.000000000000000000, 1.224646799147353207E-16 ) ) ;
#168 = ORIENTED_EDGE ( 'NONE', *, *, #37, .F. ) ;
#169 = ADVANCED_FACE ( 'NONE', ( #99, #77 ), #213, .T. ) ;
#170 = DATE_TIME_ROLE ( 'creation_date' ) ;
#171 = PLANE ( 'NONE',  #86 ) ;
#172 = APPROVAL ( #111, 'UNSPECIFIED' ) ;
#173 = APPLICATION_CONTEXT ( 'configuration controlled 3d designs of mechanical parts and assemblies' ) ;
#174 = FACE_BOUND ( 'NONE', #13, .T. ) ;
#175 = CARTESIAN_POINT ( 'NONE',  ( 2.779219145719134403E-13, 1.999999999999991340, 79.60000000000000853 ) ) ;
#176 = CARTESIAN_POINT ( 'NONE',  ( 4.189777606611760026E-14, 2.735000000000028741, 12.00000000000000000 ) ) ;
#177 = CARTESIAN_POINT ( 'NONE',  ( 2.793185071074506684E-13, -9.797174393178826052E-15, 80.00000000000000000 ) ) ;
#178 = AXIS2_PLACEMENT_3D ( 'NONE', #147, #221, #188 ) ;
#179 = DIRECTION ( 'NONE',  ( 3.491481338843133355E-15, -1.224646799147353207E-16, 1.000000000000000000 ) ) ;
#180 = EDGE_LOOP ( 'NONE', ( #216 ) ) ;
#181 = EDGE_LOOP ( 'NONE', ( #168 ) ) ;
#182 = PLANE ( 'NONE',  #9 ) ;
#183 = CLOSED_SHELL ( 'NONE', ( #14, #100, #169, #243, #33 ) ) ;
#184 = APPLICATION_PROTOCOL_DEFINITION ( 'international standard', 'config_control_design', 1994, #226 ) ;
#185 = EDGE_CURVE ( 'NONE', #98, #98, #156, .T. ) ;
#186 = ORIENTED_EDGE ( 'NONE', *, *, #209, .F. ) ;
#187 = CALENDAR_DATE ( 2021, 2, 12 ) ;
#188 = DIRECTION ( 'NONE',  ( 4.225074832293707029E-31, 1.000000000000000000, 1.189252840020649991E-16 ) ) ;
#189 = CIRCLE ( 'NONE', #135, 2.735000000000030074 ) ;
#190 = EDGE_CURVE ( 'NONE', #208, #208, #230, .T. ) ;
#191 = DIRECTION ( 'NONE',  ( 4.275831445896959482E-31, 1.000000000000000000, 1.224646799147353207E-16 ) ) ;
#192 = CLOSED_SHELL ( 'NONE', ( #148, #140, #80, #128 ) ) ;
#193 = LOCAL_TIME ( 13, 57, 34.00000000000000000, #73 ) ;
#194 = FACE_BOUND ( 'NONE', #143, .T. ) ;
#195 = DIRECTION ( 'NONE',  ( 0.0000000000000000000, 1.000000000000000000, 0.0000000000000000000 ) ) ;
#196 = CARTESIAN_POINT ( 'NONE',  ( 4.189777606611760026E-14, -1.469576158976823947E-15, 12.00000000000000000 ) ) ;
#197 = CALENDAR_DATE ( 2021, 2, 12 ) ;
#198 = FACE_OUTER_BOUND ( 'NONE', #35, .T. ) ;
#199 = MECHANICAL_CONTEXT ( 'NONE', #173, 'mechanical' ) ;
#200 = PERSON_AND_ORGANIZATION_ROLE ( 'creator' ) ;
#201 = EDGE_LOOP ( 'NONE', ( #112 ) ) ;
#202 = CIRCLE ( 'NONE', #178, 2.735000000000030074 ) ;
#203 = EDGE_LOOP ( 'NONE', ( #66 ) ) ;
#204 = DIRECTION ( 'NONE',  ( -3.491481338843133355E-15, 1.224646799147353207E-16, -1.000000000000000000 ) ) ;
#205 = EDGE_CURVE ( 'NONE', #229, #229, #91, .T. ) ;
#206 = MANIFOLD_SOLID_BREP ( 'Corps-Déplacer/Copier1[2]', #192 ) ;
#207 = PLANE ( 'NONE',  #93 ) ;
#208 = VERTEX_POINT ( 'NONE', #5 ) ;
#209 = EDGE_CURVE ( 'NONE', #61, #61, #26, .T. ) ;
#210 = DIRECTION ( 'NONE',  ( -4.275831445896958607E-31, -1.000000000000000000, -1.224646799147353207E-16 ) ) ;
#211 = DIRECTION ( 'NONE',  ( -3.491481338843133355E-15, 1.224646799147353207E-16, -1.000000000000000000 ) ) ;
#212 = PERSON_AND_ORGANIZATION ( #83, #145 ) ;
#213 = CYLINDRICAL_SURFACE ( 'NONE', #152, 1.999999999999996669 ) ;
#214 = APPROVAL_DATE_TIME ( #71, #122 ) ;
#215 = CC_DESIGN_DATE_AND_TIME_ASSIGNMENT ( #113, #222, ( #115 ) ) ;
#216 = ORIENTED_EDGE ( 'NONE', *, *, #37, .T. ) ;
#217 = PERSON_AND_ORGANIZATION_ROLE ( 'design_supplier' ) ;
#218 = UNCERTAINTY_MEASURE_WITH_UNIT (LENGTH_MEASURE( 1.000000000000000082E-05 ), #7, 'distance_accuracy_value', 'NONE');
#219 = ORIENTED_EDGE ( 'NONE', *, *, #64, .T. ) ;
#220 = CALENDAR_DATE ( 2021, 2, 12 ) ;
#221 = DIRECTION ( 'NONE',  ( -3.491481338843133355E-15, 1.224646799147353207E-16, -1.000000000000000000 ) ) ;
#222 = DATE_TIME_ROLE ( 'classification_date' ) ;
#223 = CARTESIAN_POINT ( 'NONE',  ( 4.189777606611760026E-14, -1.469576158976823947E-15, 12.00000000000000000 ) ) ;
#224 = CC_DESIGN_APPROVAL ( #172, ( #115 ) ) ;
#225 = PRODUCT_DEFINITION_SHAPE ( 'NONE', 'NONE',  #10 ) ;
#226 = APPLICATION_CONTEXT ( 'configuration controlled 3d designs of mechanical parts and assemblies' ) ;
#227 = AXIS2_PLACEMENT_3D ( 'NONE', #101, #211, #191 ) ;
#228 = DIRECTION ( 'NONE',  ( -3.491481338843133355E-15, 1.224646799147353207E-16, -1.000000000000000000 ) ) ;
#229 = VERTEX_POINT ( 'NONE', #232 ) ;
#230 = CIRCLE ( 'NONE', #69, 1.600000000000000977 ) ;
#231 = DIRECTION ( 'NONE',  ( 4.275831445896957731E-31, 1.000000000000000000, 1.224646799147352961E-16 ) ) ;
#232 = CARTESIAN_POINT ( 'NONE',  ( 0.0000000000000000000, 2.335000000000028386, 0.0000000000000000000 ) ) ;
#233 = EDGE_LOOP ( 'NONE', ( #131 ) ) ;
#234 = PERSON_AND_ORGANIZATION ( #83, #145 ) ;
#235 = CONICAL_SURFACE ( 'NONE', #103, 2.735000000000030074, 0.5235987755983002589 ) ;
#236 = CALENDAR_DATE ( 2021, 2, 12 ) ;
#237 = APPROVAL_STATUS ( 'not_yet_approved' ) ;
#238 = EDGE_LOOP ( 'NONE', ( #67 ) ) ;
#239 = ADVANCED_BREP_SHAPE_REPRESENTATION ( '321773', ( #130, #206, #144 ), #55 ) ;
#240 = APPROVAL_PERSON_ORGANIZATION ( #28, #172, #16 ) ;
#241 = COORDINATED_UNIVERSAL_TIME_OFFSET ( 1, 0, .AHEAD. ) ;
#242 = FACE_BOUND ( 'NONE', #88, .T. ) ;
#243 = ADVANCED_FACE ( 'NONE', ( #21, #174 ), #20, .T. ) ;
ENDSEC;
END-ISO-10303-21;
