ISO-10303-21;
HEADER;
FILE_DESCRIPTION (( 'STEP AP203' ),
    '1' );
FILE_NAME ('321771.step',
    '2021-12-02T12:57:33',
    ( '' ),
    ( '' ),
    'SwSTEP 2.0',
    'SolidWorks 2019',
    '' );
FILE_SCHEMA (( 'CONFIG_CONTROL_DESIGN' ));
ENDSEC;

DATA;
#1 = PERSON_AND_ORGANIZATION ( #107, #197 ) ;
#2 = CARTESIAN_POINT ( 'NONE',  ( 1.396592535537251370E-15, -4.898587196589405680E-17, 0.3999999999999994116 ) ) ;
#3 = PERSON_AND_ORGANIZATION_ROLE ( 'design_supplier' ) ;
#4 = DIRECTION ( 'NONE',  ( 4.240579694063592407E-31, 1.000000000000000000, 1.193617070626230418E-16 ) ) ;
#5 = DIRECTION ( 'NONE',  ( 3.491481338843133355E-15, -1.224646799147353207E-16, 1.000000000000000000 ) ) ;
#6 = PERSON_AND_ORGANIZATION ( #107, #197 ) ;
#7 = DIRECTION ( 'NONE',  ( -3.491481338843133355E-15, 1.224646799147353207E-16, -1.000000000000000000 ) ) ;
#8 = CLOSED_SHELL ( 'NONE', ( #217, #148, #63, #224 ) ) ;
#9 = DIRECTION ( 'NONE',  ( -3.491481338843133355E-15, 1.224646799147353207E-16, -1.000000000000000000 ) ) ;
#10 = CC_DESIGN_DATE_AND_TIME_ASSIGNMENT ( #124, #166, ( #81 ) ) ;
#11 = CC_DESIGN_DATE_AND_TIME_ASSIGNMENT ( #88, #42, ( #215 ) ) ;
#12 = ORIENTED_EDGE ( 'NONE', *, *, #68, .F. ) ;
#13 = ORIENTED_EDGE ( 'NONE', *, *, #189, .T. ) ;
#14 = DIRECTION ( 'NONE',  ( -3.491481338843133355E-15, 1.224646799147353207E-16, -1.000000000000000000 ) ) ;
#15 = AXIS2_PLACEMENT_3D ( 'NONE', #118, #112, #127 ) ;
#16 = PRODUCT ( '321771', '321771', '', ( #152 ) ) ;
#17 = LOCAL_TIME ( 13, 57, 33.00000000000000000, #37 ) ;
#18 = CALENDAR_DATE ( 2021, 2, 12 ) ;
#19 = EDGE_CURVE ( 'NONE', #43, #43, #125, .T. ) ;
#20 = AXIS2_PLACEMENT_3D ( 'NONE', #216, #218, #95 ) ;
#21 = PLANE ( 'NONE',  #90 ) ;
#22 = CARTESIAN_POINT ( 'NONE',  ( 4.189777606611760026E-14, -1.469576158976823947E-15, 12.00000000000000000 ) ) ;
#23 = ADVANCED_FACE ( 'NONE', ( #207, #164 ), #145, .T. ) ;
#24 = PLANE ( 'NONE',  #86 ) ;
#25 = DIRECTION ( 'NONE',  ( -4.275831445896958607E-31, -1.000000000000000000, -1.224646799147353207E-16 ) ) ;
#26 = AXIS2_PLACEMENT_3D ( 'NONE', #109, #226, #243 ) ;
#27 = EDGE_LOOP ( 'NONE', ( #142 ) ) ;
#28 = ADVANCED_FACE ( 'NONE', ( #70, #183 ), #229, .T. ) ;
#29 = AXIS2_PLACEMENT_3D ( 'NONE', #115, #178, #111 ) ;
#30 = EDGE_LOOP ( 'NONE', ( #201 ) ) ;
#31 = CARTESIAN_POINT ( 'NONE',  ( 4.189777606611760026E-14, -1.469576158976823947E-15, 12.00000000000000000 ) ) ;
#32 = AXIS2_PLACEMENT_3D ( 'NONE', #83, #236, #190 ) ;
#33 = CC_DESIGN_APPROVAL ( #146, ( #81 ) ) ;
#34 = APPROVAL_DATE_TIME ( #175, #146 ) ;
#35 = EDGE_CURVE ( 'NONE', #79, #79, #45, .T. ) ;
#36 = AXIS2_PLACEMENT_3D ( 'NONE', #31, #52, #91 ) ;
#37 = COORDINATED_UNIVERSAL_TIME_OFFSET ( 1, 0, .AHEAD. ) ;
#38 = FACE_OUTER_BOUND ( 'NONE', #119, .T. ) ;
#39 = DIRECTION ( 'NONE',  ( 3.491481338843133355E-15, -1.224646799147353207E-16, 1.000000000000000000 ) ) ;
#40 = PERSON_AND_ORGANIZATION ( #107, #197 ) ;
#41 = CARTESIAN_POINT ( 'NONE',  ( 4.189777606611760026E-14, 2.725000000000028511, 12.00000000000000000 ) ) ;
#42 = DATE_TIME_ROLE ( 'classification_date' ) ;
#43 = VERTEX_POINT ( 'NONE', #193 ) ;
#44 = PLANE ( 'NONE',  #55 ) ;
#45 = CIRCLE ( 'NONE', #73, 2.725000000000029843 ) ;
#46 = SECURITY_CLASSIFICATION_LEVEL ( 'unclassified' ) ;
#47 = APPROVAL_PERSON_ORGANIZATION ( #40, #146, #54 ) ;
#48 = ORIENTED_EDGE ( 'NONE', *, *, #189, .F. ) ;
#49 = LOCAL_TIME ( 13, 57, 33.00000000000000000, #66 ) ;
#50 = ORIENTED_EDGE ( 'NONE', *, *, #35, .T. ) ;
#51 = EDGE_CURVE ( 'NONE', #132, #132, #184, .T. ) ;
#52 = DIRECTION ( 'NONE',  ( -3.491481338843133355E-15, 1.224646799147353207E-16, -1.000000000000000000 ) ) ;
#53 = PRODUCT_RELATED_PRODUCT_CATEGORY ( 'detail', '', ( #16 ) ) ;
#54 = APPROVAL_ROLE ( '' ) ;
#55 = AXIS2_PLACEMENT_3D ( 'NONE', #231, #235, #101 ) ;
#56 =( LENGTH_UNIT ( ) NAMED_UNIT ( * ) SI_UNIT ( .MILLI., .METRE. ) );
#57 = CARTESIAN_POINT ( 'NONE',  ( 0.0000000000000000000, 0.0000000000000000000, 0.0000000000000000000 ) ) ;
#58 = CARTESIAN_POINT ( 'NONE',  ( 2.779219145719134403E-13, 1.999999999999991340, 79.60000000000000853 ) ) ;
#59 = FACE_BOUND ( 'NONE', #203, .T. ) ;
#60 = CALENDAR_DATE ( 2021, 2, 12 ) ;
#61 = DIRECTION ( 'NONE',  ( -3.491481338843133355E-15, 1.224646799147353207E-16, -1.000000000000000000 ) ) ;
#62 = CARTESIAN_POINT ( 'NONE',  ( 2.793185071074506684E-13, -9.797174393178826052E-15, 80.00000000000000000 ) ) ;
#63 = ADVANCED_FACE ( 'NONE', ( #176 ), #151, .T. ) ;
#64 = APPROVAL_STATUS ( 'not_yet_approved' ) ;
#65 = FACE_OUTER_BOUND ( 'NONE', #30, .T. ) ;
#66 = COORDINATED_UNIVERSAL_TIME_OFFSET ( 1, 0, .AHEAD. ) ;
#67 = ORIENTED_EDGE ( 'NONE', *, *, #228, .F. ) ;
#68 = EDGE_CURVE ( 'NONE', #114, #114, #169, .T. ) ;
#69 = EDGE_LOOP ( 'NONE', ( #85 ) ) ;
#70 = FACE_OUTER_BOUND ( 'NONE', #240, .T. ) ;
#71 = CALENDAR_DATE ( 2021, 2, 12 ) ;
#72 = PERSON_AND_ORGANIZATION ( #107, #197 ) ;
#73 = AXIS2_PLACEMENT_3D ( 'NONE', #2, #9, #4 ) ;
#74 = CIRCLE ( 'NONE', #29, 2.325000000000028599 ) ;
#75 = DIRECTION ( 'NONE',  ( 0.0000000000000000000, 1.000000000000000000, 0.0000000000000000000 ) ) ;
#76 = APPROVAL_STATUS ( 'not_yet_approved' ) ;
#77 = DIRECTION ( 'NONE',  ( 4.275831445896958607E-31, 1.000000000000000000, 1.224646799147353207E-16 ) ) ;
#78 = APPROVAL_STATUS ( 'not_yet_approved' ) ;
#79 = VERTEX_POINT ( 'NONE', #98 ) ;
#80 = VERTEX_POINT ( 'NONE', #191 ) ;
#81 = PRODUCT_DEFINITION ( 'UNKNOWN', '', #242, #161 ) ;
#82 = FACE_OUTER_BOUND ( 'NONE', #69, .T. ) ;
#83 = CARTESIAN_POINT ( 'NONE',  ( -4.970654055855274877E-31, 1.743470747344430954E-32, -1.423651904008815474E-16 ) ) ;
#84 = PERSON_AND_ORGANIZATION ( #107, #197 ) ;
#85 = ORIENTED_EDGE ( 'NONE', *, *, #19, .T. ) ;
#86 = AXIS2_PLACEMENT_3D ( 'NONE', #134, #39, #25 ) ;
#87 = EDGE_LOOP ( 'NONE', ( #13 ) ) ;
#88 = DATE_AND_TIME ( #137, #49 ) ;
#89 = ORIENTED_EDGE ( 'NONE', *, *, #68, .T. ) ;
#90 = AXIS2_PLACEMENT_3D ( 'NONE', #168, #158, #156 ) ;
#91 = DIRECTION ( 'NONE',  ( 0.0000000000000000000, 1.000000000000000000, 0.0000000000000000000 ) ) ;
#92 = APPLICATION_CONTEXT ( 'configuration controlled 3d designs of mechanical parts and assemblies' ) ;
#93 = VERTEX_POINT ( 'NONE', #58 ) ;
#94 = DATE_AND_TIME ( #71, #17 ) ;
#95 = DIRECTION ( 'NONE',  ( 0.0000000000000000000, 1.000000000000000000, 0.0000000000000000000 ) ) ;
#96 = APPLICATION_PROTOCOL_DEFINITION ( 'international standard', 'config_control_design', 1994, #92 ) ;
#97 = CYLINDRICAL_SURFACE ( 'NONE', #204, 2.725000000000029843 ) ;
#98 = CARTESIAN_POINT ( 'NONE',  ( 1.396592535537252553E-15, 2.725000000000029843, 0.3999999999999997446 ) ) ;
#99 = APPLICATION_PROTOCOL_DEFINITION ( 'international standard', 'config_control_design', 1994, #113 ) ;
#100 = EDGE_CURVE ( 'NONE', #196, #196, #123, .T. ) ;
#101 = DIRECTION ( 'NONE',  ( -4.275831445896958607E-31, -1.000000000000000000, -1.224646799147353207E-16 ) ) ;
#102 = APPROVAL_PERSON_ORGANIZATION ( #202, #159, #133 ) ;
#103 = DIRECTION ( 'NONE',  ( 0.0000000000000000000, 1.000000000000000000, 0.0000000000000000000 ) ) ;
#104 = ADVANCED_FACE ( 'NONE', ( #38 ), #21, .F. ) ;
#105 = CC_DESIGN_APPROVAL ( #159, ( #215 ) ) ;
#106 = ORIENTED_EDGE ( 'NONE', *, *, #228, .T. ) ;
#107 = PERSON ( 'UNSPECIFIED', 'UNSPECIFIED', 'UNSPECIFIED', ('UNSPECIFIED'), ('UNSPECIFIED'), ('UNSPECIFIED') ) ;
#108 = CC_DESIGN_PERSON_AND_ORGANIZATION_ASSIGNMENT ( #84, #200, ( #215 ) ) ;
#109 = CARTESIAN_POINT ( 'NONE',  ( 0.0000000000000000000, 0.0000000000000000000, 0.0000000000000000000 ) ) ;
#110 = PERSON_AND_ORGANIZATION_ROLE ( 'creator' ) ;
#111 = DIRECTION ( 'NONE',  ( 4.275831445896957731E-31, 1.000000000000000000, 1.224646799147353207E-16 ) ) ;
#112 = DIRECTION ( 'NONE',  ( -3.491481338843133355E-15, 1.224646799147353207E-16, -1.000000000000000000 ) ) ;
#113 = APPLICATION_CONTEXT ( 'configuration controlled 3d designs of mechanical parts and assemblies' ) ;
#114 = VERTEX_POINT ( 'NONE', #194 ) ;
#115 = CARTESIAN_POINT ( 'NONE',  ( -9.941308111710549754E-31, 3.486941494688861908E-32, -2.847303808017630947E-16 ) ) ;
#116 = AXIS2_PLACEMENT_3D ( 'NONE', #122, #14, #174 ) ;
#117 = CONICAL_SURFACE ( 'NONE', #165, 2.325000000000028599, 0.7853981633974504994 ) ;
#118 = CARTESIAN_POINT ( 'NONE',  ( 2.779219145719134403E-13, -9.748188521212932624E-15, 79.60000000000000853 ) ) ;
#119 = EDGE_LOOP ( 'NONE', ( #12 ) ) ;
#120 = ORIENTED_EDGE ( 'NONE', *, *, #51, .T. ) ;
#121 = EDGE_LOOP ( 'NONE', ( #106 ) ) ;
#122 = CARTESIAN_POINT ( 'NONE',  ( 2.793185071074506684E-13, -9.797174393178826052E-15, 80.00000000000000000 ) ) ;
#123 = CIRCLE ( 'NONE', #20, 1.999999999999992228 ) ;
#124 = DATE_AND_TIME ( #18, #147 ) ;
#125 = CIRCLE ( 'NONE', #36, 2.725000000000029843 ) ;
#126 =( NAMED_UNIT ( * ) PLANE_ANGLE_UNIT ( ) SI_UNIT ( $, .RADIAN. ) );
#127 = DIRECTION ( 'NONE',  ( 0.0000000000000000000, 1.000000000000000000, 0.0000000000000000000 ) ) ;
#128 = DIRECTION ( 'NONE',  ( 0.0000000000000000000, 0.0000000000000000000, 1.000000000000000000 ) ) ;
#129 = DIRECTION ( 'NONE',  ( 0.0000000000000000000, 1.000000000000000000, 0.0000000000000000000 ) ) ;
#130 = PERSON_AND_ORGANIZATION_ROLE ( 'design_owner' ) ;
#131 = CONICAL_SURFACE ( 'NONE', #192, 2.725000000000029843, 0.5235987755983002589 ) ;
#132 = VERTEX_POINT ( 'NONE', #41 ) ;
#133 = APPROVAL_ROLE ( '' ) ;
#134 = CARTESIAN_POINT ( 'NONE',  ( 4.189777606611760026E-14, 2.043422703876801654E-32, 12.00000000000000000 ) ) ;
#135 = COORDINATED_UNIVERSAL_TIME_OFFSET ( 1, 0, .AHEAD. ) ;
#136 = DIRECTION ( 'NONE',  ( -4.275831445896957731E-31, -1.000000000000000000, -1.224646799147353207E-16 ) ) ;
#137 = CALENDAR_DATE ( 2021, 2, 12 ) ;
#138 = AXIS2_PLACEMENT_3D ( 'NONE', #22, #61, #129 ) ;
#139 = ORIENTED_EDGE ( 'NONE', *, *, #19, .F. ) ;
#140 = LOCAL_TIME ( 13, 57, 33.00000000000000000, #135 ) ;
#141 = ADVANCED_FACE ( 'NONE', ( #238, #157 ), #131, .T. ) ;
#142 = ORIENTED_EDGE ( 'NONE', *, *, #100, .F. ) ;
#143 = CLOSED_SHELL ( 'NONE', ( #239, #141, #23, #28, #104 ) ) ;
#144 = ORIENTED_EDGE ( 'NONE', *, *, #51, .F. ) ;
#145 = CYLINDRICAL_SURFACE ( 'NONE', #26, 1.999999999999996669 ) ;
#146 = APPROVAL ( #78, 'UNSPECIFIED' ) ;
#147 = LOCAL_TIME ( 13, 57, 33.00000000000000000, #187 ) ;
#148 = ADVANCED_FACE ( 'NONE', ( #198 ), #44, .T. ) ;
#149 = PERSON_AND_ORGANIZATION ( #107, #197 ) ;
#150 =( GEOMETRIC_REPRESENTATION_CONTEXT ( 3 ) GLOBAL_UNCERTAINTY_ASSIGNED_CONTEXT ( ( #155 ) ) GLOBAL_UNIT_ASSIGNED_CONTEXT ( ( #56, #126, #230 ) ) REPRESENTATION_CONTEXT ( 'NONE', 'WORKASPACE' ) );
#151 = PLANE ( 'NONE',  #32 ) ;
#152 = MECHANICAL_CONTEXT ( 'NONE', #92, 'mechanical' ) ;
#153 = CARTESIAN_POINT ( 'NONE',  ( 4.189777606611760026E-14, -1.469576158976823947E-15, 12.00000000000000000 ) ) ;
#154 = DIRECTION ( 'NONE',  ( 1.000000000000000000, 0.0000000000000000000, 0.0000000000000000000 ) ) ;
#155 = UNCERTAINTY_MEASURE_WITH_UNIT (LENGTH_MEASURE( 1.000000000000000082E-05 ), #56, 'distance_accuracy_value', 'NONE');
#156 = DIRECTION ( 'NONE',  ( 4.275831445896958607E-31, 1.000000000000000000, 1.224646799147353207E-16 ) ) ;
#157 = FACE_OUTER_BOUND ( 'NONE', #162, .T. ) ;
#158 = DIRECTION ( 'NONE',  ( -3.491481338843133355E-15, 1.224646799147353207E-16, -1.000000000000000000 ) ) ;
#159 = APPROVAL ( #64, 'UNSPECIFIED' ) ;
#160 = DATE_AND_TIME ( #237, #140 ) ;
#161 = DESIGN_CONTEXT ( 'detailed design', #113, 'design' ) ;
#162 = EDGE_LOOP ( 'NONE', ( #144 ) ) ;
#163 = CIRCLE ( 'NONE', #15, 2.000000000000000888 ) ;
#164 = FACE_OUTER_BOUND ( 'NONE', #121, .T. ) ;
#165 = AXIS2_PLACEMENT_3D ( 'NONE', #214, #5, #136 ) ;
#166 = DATE_TIME_ROLE ( 'creation_date' ) ;
#167 = APPROVAL_DATE_TIME ( #94, #186 ) ;
#168 = CARTESIAN_POINT ( 'NONE',  ( 2.793185071074506684E-13, 1.199807826129472128E-32, 80.00000000000000000 ) ) ;
#169 = CIRCLE ( 'NONE', #208, 1.600000000000000977 ) ;
#170 = PERSON_AND_ORGANIZATION ( #107, #197 ) ;
#171 = DIRECTION ( 'NONE',  ( -3.491481338843133355E-15, 1.224646799147353207E-16, -1.000000000000000000 ) ) ;
#172 = CARTESIAN_POINT ( 'NONE',  ( 0.0000000000000000000, 0.0000000000000000000, 0.0000000000000000000 ) ) ;
#173 = CC_DESIGN_PERSON_AND_ORGANIZATION_ASSIGNMENT ( #6, #110, ( #81 ) ) ;
#174 = DIRECTION ( 'NONE',  ( 0.0000000000000000000, 1.000000000000000000, 0.0000000000000000000 ) ) ;
#175 = DATE_AND_TIME ( #60, #185 ) ;
#176 = FACE_OUTER_BOUND ( 'NONE', #87, .T. ) ;
#177 = CC_DESIGN_SECURITY_CLASSIFICATION ( #215, ( #242 ) ) ;
#178 = DIRECTION ( 'NONE',  ( -3.491481338843133355E-15, 1.224646799147353207E-16, -1.000000000000000000 ) ) ;
#179 = SHAPE_DEFINITION_REPRESENTATION ( #227, #210 ) ;
#180 = APPROVAL_DATE_TIME ( #160, #159 ) ;
#181 = AXIS2_PLACEMENT_3D ( 'NONE', #172, #128, #154 ) ;
#182 = ORIENTED_EDGE ( 'NONE', *, *, #100, .T. ) ;
#183 = FACE_BOUND ( 'NONE', #222, .T. ) ;
#184 = CIRCLE ( 'NONE', #138, 2.725000000000029843 ) ;
#185 = LOCAL_TIME ( 13, 57, 33.00000000000000000, #233 ) ;
#186 = APPROVAL ( #76, 'UNSPECIFIED' ) ;
#187 = COORDINATED_UNIVERSAL_TIME_OFFSET ( 1, 0, .AHEAD. ) ;
#188 = PERSON_AND_ORGANIZATION_ROLE ( 'creator' ) ;
#189 = EDGE_CURVE ( 'NONE', #80, #80, #74, .T. ) ;
#190 = DIRECTION ( 'NONE',  ( 4.275831445896958607E-31, 1.000000000000000000, 1.224646799147353207E-16 ) ) ;
#191 = CARTESIAN_POINT ( 'NONE',  ( 0.0000000000000000000, 2.325000000000028599, 0.0000000000000000000 ) ) ;
#192 = AXIS2_PLACEMENT_3D ( 'NONE', #153, #7, #75 ) ;
#193 = CARTESIAN_POINT ( 'NONE',  ( 4.189777606611760026E-14, 2.725000000000028511, 12.00000000000000000 ) ) ;
#194 = CARTESIAN_POINT ( 'NONE',  ( 2.793185071074506684E-13, 1.599999999999991207, 80.00000000000000000 ) ) ;
#195 = CC_DESIGN_PERSON_AND_ORGANIZATION_ASSIGNMENT ( #149, #130, ( #16 ) ) ;
#196 = VERTEX_POINT ( 'NONE', #205 ) ;
#197 = ORGANIZATION ( 'UNSPECIFIED', 'UNSPECIFIED', '' ) ;
#198 = FACE_OUTER_BOUND ( 'NONE', #241, .T. ) ;
#199 = EDGE_LOOP ( 'NONE', ( #50 ) ) ;
#200 = PERSON_AND_ORGANIZATION_ROLE ( 'classification_officer' ) ;
#201 = ORIENTED_EDGE ( 'NONE', *, *, #35, .F. ) ;
#202 = PERSON_AND_ORGANIZATION ( #107, #197 ) ;
#203 = EDGE_LOOP ( 'NONE', ( #48 ) ) ;
#204 = AXIS2_PLACEMENT_3D ( 'NONE', #57, #171, #77 ) ;
#205 = CARTESIAN_POINT ( 'NONE',  ( 4.628215779372012669E-14, 1.999999999999990452, 13.25573683548749671 ) ) ;
#206 = CC_DESIGN_PERSON_AND_ORGANIZATION_ASSIGNMENT ( #72, #188, ( #242 ) ) ;
#207 = FACE_OUTER_BOUND ( 'NONE', #27, .T. ) ;
#208 = AXIS2_PLACEMENT_3D ( 'NONE', #62, #219, #103 ) ;
#209 = MANIFOLD_SOLID_BREP ( 'Corps-Déplacer/Copier1[2]', #8 ) ;
#210 = ADVANCED_BREP_SHAPE_REPRESENTATION ( '321771', ( #211, #209, #181 ), #150 ) ;
#211 = MANIFOLD_SOLID_BREP ( 'Corps-Déplacer/Copier1[1]', #143 ) ;
#212 = APPROVAL_ROLE ( '' ) ;
#213 = FACE_OUTER_BOUND ( 'NONE', #225, .T. ) ;
#214 = CARTESIAN_POINT ( 'NONE',  ( -9.941308111710549754E-31, 3.486941494688861908E-32, -2.847303808017630947E-16 ) ) ;
#215 = SECURITY_CLASSIFICATION ( '', '', #46 ) ;
#216 = CARTESIAN_POINT ( 'NONE',  ( 4.628215779372012669E-14, -1.623359568591942935E-15, 13.25573683548749671 ) ) ;
#217 = ADVANCED_FACE ( 'NONE', ( #82, #65 ), #97, .T. ) ;
#218 = DIRECTION ( 'NONE',  ( -3.491481338843133355E-15, 1.224646799147353207E-16, -1.000000000000000000 ) ) ;
#219 = DIRECTION ( 'NONE',  ( -3.491481338843133355E-15, 1.224646799147353207E-16, -1.000000000000000000 ) ) ;
#220 = CC_DESIGN_APPROVAL ( #186, ( #242 ) ) ;
#221 = APPROVAL_PERSON_ORGANIZATION ( #1, #186, #212 ) ;
#222 = EDGE_LOOP ( 'NONE', ( #89 ) ) ;
#223 = EDGE_LOOP ( 'NONE', ( #182 ) ) ;
#224 = ADVANCED_FACE ( 'NONE', ( #232, #59 ), #117, .T. ) ;
#225 = EDGE_LOOP ( 'NONE', ( #120 ) ) ;
#226 = DIRECTION ( 'NONE',  ( -3.491481338843133355E-15, 1.224646799147353207E-16, -1.000000000000000000 ) ) ;
#227 = PRODUCT_DEFINITION_SHAPE ( 'NONE', 'NONE',  #81 ) ;
#228 = EDGE_CURVE ( 'NONE', #93, #93, #163, .T. ) ;
#229 = CONICAL_SURFACE ( 'NONE', #116, 1.600000000000000977, 0.7853981633974512766 ) ;
#230 =( NAMED_UNIT ( * ) SI_UNIT ( $, .STERADIAN. ) SOLID_ANGLE_UNIT ( ) );
#231 = CARTESIAN_POINT ( 'NONE',  ( 4.189777606611760026E-14, 2.043422703876801654E-32, 12.00000000000000000 ) ) ;
#232 = FACE_OUTER_BOUND ( 'NONE', #199, .T. ) ;
#233 = COORDINATED_UNIVERSAL_TIME_OFFSET ( 1, 0, .AHEAD. ) ;
#234 = CC_DESIGN_PERSON_AND_ORGANIZATION_ASSIGNMENT ( #170, #3, ( #242 ) ) ;
#235 = DIRECTION ( 'NONE',  ( 3.491481338843133355E-15, -1.224646799147353207E-16, 1.000000000000000000 ) ) ;
#236 = DIRECTION ( 'NONE',  ( -3.491481338843133355E-15, 1.224646799147353207E-16, -1.000000000000000000 ) ) ;
#237 = CALENDAR_DATE ( 2021, 2, 12 ) ;
#238 = FACE_BOUND ( 'NONE', #223, .T. ) ;
#239 = ADVANCED_FACE ( 'NONE', ( #213 ), #24, .F. ) ;
#240 = EDGE_LOOP ( 'NONE', ( #67 ) ) ;
#241 = EDGE_LOOP ( 'NONE', ( #139 ) ) ;
#242 = PRODUCT_DEFINITION_FORMATION_WITH_SPECIFIED_SOURCE ( 'ANY', '', #16, .NOT_KNOWN. ) ;
#243 = DIRECTION ( 'NONE',  ( 4.275831445896958607E-31, 1.000000000000000000, 1.224646799147353207E-16 ) ) ;
ENDSEC;
END-ISO-10303-21;
