ISO-10303-21;
HEADER;
FILE_DESCRIPTION (( 'STEP AP203' ),
    '1' );
FILE_NAME ('321766.step',
    '2021-12-02T12:57:29',
    ( '' ),
    ( '' ),
    'SwSTEP 2.0',
    'SolidWorks 2019',
    '' );
FILE_SCHEMA (( 'CONFIG_CONTROL_DESIGN' ));
ENDSEC;

DATA;
#1 = APPROVAL ( #99, 'UNSPECIFIED' ) ;
#2 = DATE_AND_TIME ( #79, #87 ) ;
#3 = EDGE_LOOP ( 'NONE', ( #207 ) ) ;
#4 = SECURITY_CLASSIFICATION_LEVEL ( 'unclassified' ) ;
#5 = EDGE_CURVE ( 'NONE', #173, #173, #199, .T. ) ;
#6 = EDGE_LOOP ( 'NONE', ( #143 ) ) ;
#7 = ORIENTED_EDGE ( 'NONE', *, *, #146, .T. ) ;
#8 = ADVANCED_FACE ( 'NONE', ( #239 ), #218, .T. ) ;
#9 = PLANE ( 'NONE',  #158 ) ;
#10 = FACE_BOUND ( 'NONE', #211, .T. ) ;
#11 = CARTESIAN_POINT ( 'NONE',  ( 2.793185071074506684E-13, 1.199807826129472128E-32, 80.00000000000000000 ) ) ;
#12 = DIRECTION ( 'NONE',  ( -3.491481338843133355E-15, 1.224646799147353207E-16, -1.000000000000000000 ) ) ;
#13 = DIRECTION ( 'NONE',  ( -4.275831445896958607E-31, -1.000000000000000000, -1.224646799147353207E-16 ) ) ;
#14 = APPLICATION_PROTOCOL_DEFINITION ( 'international standard', 'config_control_design', 1994, #28 ) ;
#15 = VERTEX_POINT ( 'NONE', #16 ) ;
#16 = CARTESIAN_POINT ( 'NONE',  ( 4.189777606611760026E-14, 2.700000000000028599, 12.00000000000000000 ) ) ;
#17 = MANIFOLD_SOLID_BREP ( 'Corps-Déplacer/Copier1[2]', #34 ) ;
#18 = CARTESIAN_POINT ( 'NONE',  ( 1.396592535537252553E-15, 2.700000000000030376, 0.3999999999999997446 ) ) ;
#19 = ADVANCED_FACE ( 'NONE', ( #144 ), #9, .F. ) ;
#20 = PRODUCT ( '321766', '321766', '', ( #139 ) ) ;
#21 = PERSON_AND_ORGANIZATION_ROLE ( 'design_owner' ) ;
#22 = AXIS2_PLACEMENT_3D ( 'NONE', #132, #88, #236 ) ;
#23 = ORIENTED_EDGE ( 'NONE', *, *, #102, .T. ) ;
#24 = CC_DESIGN_DATE_AND_TIME_ASSIGNMENT ( #38, #96, ( #129 ) ) ;
#25 = ORIENTED_EDGE ( 'NONE', *, *, #5, .T. ) ;
#26 = ORIENTED_EDGE ( 'NONE', *, *, #191, .F. ) ;
#27 = EDGE_LOOP ( 'NONE', ( #84 ) ) ;
#28 = APPLICATION_CONTEXT ( 'configuration controlled 3d designs of mechanical parts and assemblies' ) ;
#29 = AXIS2_PLACEMENT_3D ( 'NONE', #185, #72, #55 ) ;
#30 = FACE_OUTER_BOUND ( 'NONE', #232, .T. ) ;
#31 = FACE_OUTER_BOUND ( 'NONE', #126, .T. ) ;
#32 = DIRECTION ( 'NONE',  ( 0.0000000000000000000, 1.000000000000000000, 0.0000000000000000000 ) ) ;
#33 = CARTESIAN_POINT ( 'NONE',  ( 0.0000000000000000000, 0.0000000000000000000, 0.0000000000000000000 ) ) ;
#34 = CLOSED_SHELL ( 'NONE', ( #186, #214, #8, #172 ) ) ;
#35 = ADVANCED_FACE ( 'NONE', ( #149, #30 ), #52, .T. ) ;
#36 = LOCAL_TIME ( 13, 57, 29.00000000000000000, #203 ) ;
#37 = CC_DESIGN_SECURITY_CLASSIFICATION ( #67, ( #76 ) ) ;
#38 = DATE_AND_TIME ( #202, #123 ) ;
#39 = CALENDAR_DATE ( 2021, 2, 12 ) ;
#40 = VERTEX_POINT ( 'NONE', #18 ) ;
#41 = APPROVAL_ROLE ( '' ) ;
#42 = SHAPE_DEFINITION_REPRESENTATION ( #224, #206 ) ;
#43 = AXIS2_PLACEMENT_3D ( 'NONE', #108, #110, #13 ) ;
#44 = EDGE_LOOP ( 'NONE', ( #7 ) ) ;
#45 = CC_DESIGN_DATE_AND_TIME_ASSIGNMENT ( #125, #83, ( #67 ) ) ;
#46 = CALENDAR_DATE ( 2021, 2, 12 ) ;
#47 = EDGE_LOOP ( 'NONE', ( #212 ) ) ;
#48 = EDGE_LOOP ( 'NONE', ( #127 ) ) ;
#49 = AXIS2_PLACEMENT_3D ( 'NONE', #54, #198, #114 ) ;
#50 = DIRECTION ( 'NONE',  ( -3.491481338843133355E-15, 1.224646799147353207E-16, -1.000000000000000000 ) ) ;
#51 = AXIS2_PLACEMENT_3D ( 'NONE', #168, #140, #189 ) ;
#52 = CYLINDRICAL_SURFACE ( 'NONE', #86, 1.999999999999996669 ) ;
#53 = DIRECTION ( 'NONE',  ( 0.0000000000000000000, 1.000000000000000000, 0.0000000000000000000 ) ) ;
#54 = CARTESIAN_POINT ( 'NONE',  ( 4.189777606611760026E-14, 2.024675706593528571E-32, 12.00000000000000000 ) ) ;
#55 = DIRECTION ( 'NONE',  ( 4.275831445896957731E-31, 1.000000000000000000, 1.224646799147353207E-16 ) ) ;
#56 = PERSON_AND_ORGANIZATION ( #107, #159 ) ;
#57 = LOCAL_TIME ( 13, 57, 29.00000000000000000, #209 ) ;
#58 = VERTEX_POINT ( 'NONE', #101 ) ;
#59 = CARTESIAN_POINT ( 'NONE',  ( 0.0000000000000000000, 0.0000000000000000000, 0.0000000000000000000 ) ) ;
#60 = DIRECTION ( 'NONE',  ( 0.0000000000000000000, 0.0000000000000000000, 1.000000000000000000 ) ) ;
#61 = APPROVAL_STATUS ( 'not_yet_approved' ) ;
#62 = CC_DESIGN_PERSON_AND_ORGANIZATION_ASSIGNMENT ( #142, #157, ( #76 ) ) ;
#63 = PRODUCT_RELATED_PRODUCT_CATEGORY ( 'detail', '', ( #20 ) ) ;
#64 = DESIGN_CONTEXT ( 'detailed design', #98, 'design' ) ;
#65 = PERSON_AND_ORGANIZATION ( #107, #159 ) ;
#66 = EDGE_LOOP ( 'NONE', ( #226 ) ) ;
#67 = SECURITY_CLASSIFICATION ( '', '', #4 ) ;
#68 = DIRECTION ( 'NONE',  ( 4.275831445896958607E-31, 1.000000000000000000, 1.224646799147353207E-16 ) ) ;
#69 = CARTESIAN_POINT ( 'NONE',  ( 0.0000000000000000000, 0.0000000000000000000, 0.0000000000000000000 ) ) ;
#70 = DIRECTION ( 'NONE',  ( 4.275831445896958607E-31, 1.000000000000000000, 1.224646799147353207E-16 ) ) ;
#71 = DIRECTION ( 'NONE',  ( -3.491481338843133355E-15, 1.224646799147353207E-16, -1.000000000000000000 ) ) ;
#72 = DIRECTION ( 'NONE',  ( -3.491481338843133355E-15, 1.224646799147353207E-16, -1.000000000000000000 ) ) ;
#73 = CIRCLE ( 'NONE', #51, 2.700000000000029932 ) ;
#74 = VERTEX_POINT ( 'NONE', #223 ) ;
#75 = CIRCLE ( 'NONE', #29, 2.300000000000028688 ) ;
#76 = PRODUCT_DEFINITION_FORMATION_WITH_SPECIFIED_SOURCE ( 'ANY', '', #20, .NOT_KNOWN. ) ;
#77 = VERTEX_POINT ( 'NONE', #119 ) ;
#78 =( LENGTH_UNIT ( ) NAMED_UNIT ( * ) SI_UNIT ( .MILLI., .METRE. ) );
#79 = CALENDAR_DATE ( 2021, 2, 12 ) ;
#80 = APPROVAL_DATE_TIME ( #2, #237 ) ;
#81 = CC_DESIGN_PERSON_AND_ORGANIZATION_ASSIGNMENT ( #65, #193, ( #76 ) ) ;
#82 = AXIS2_PLACEMENT_3D ( 'NONE', #181, #184, #133 ) ;
#83 = DATE_TIME_ROLE ( 'classification_date' ) ;
#84 = ORIENTED_EDGE ( 'NONE', *, *, #102, .F. ) ;
#85 = ORIENTED_EDGE ( 'NONE', *, *, #167, .F. ) ;
#86 = AXIS2_PLACEMENT_3D ( 'NONE', #69, #216, #200 ) ;
#87 = LOCAL_TIME ( 13, 57, 29.00000000000000000, #153 ) ;
#88 = DIRECTION ( 'NONE',  ( -3.491481338843133355E-15, 1.224646799147353207E-16, -1.000000000000000000 ) ) ;
#89 = DIRECTION ( 'NONE',  ( -3.491481338843133355E-15, 1.224646799147353207E-16, -1.000000000000000000 ) ) ;
#90 = AXIS2_PLACEMENT_3D ( 'NONE', #94, #91, #145 ) ;
#91 = DIRECTION ( 'NONE',  ( -3.491481338843133355E-15, 1.224646799147353207E-16, -1.000000000000000000 ) ) ;
#92 = CYLINDRICAL_SURFACE ( 'NONE', #137, 2.700000000000030376 ) ;
#93 = EDGE_CURVE ( 'NONE', #40, #40, #190, .T. ) ;
#94 = CARTESIAN_POINT ( 'NONE',  ( 2.793185071074506684E-13, -9.797174393178826052E-15, 80.00000000000000000 ) ) ;
#95 = APPLICATION_PROTOCOL_DEFINITION ( 'international standard', 'config_control_design', 1994, #98 ) ;
#96 = DATE_TIME_ROLE ( 'creation_date' ) ;
#97 = CIRCLE ( 'NONE', #120, 2.700000000000029932 ) ;
#98 = APPLICATION_CONTEXT ( 'configuration controlled 3d designs of mechanical parts and assemblies' ) ;
#99 = APPROVAL_STATUS ( 'not_yet_approved' ) ;
#100 = AXIS2_PLACEMENT_3D ( 'NONE', #213, #50, #32 ) ;
#101 = CARTESIAN_POINT ( 'NONE',  ( 2.793185071074506684E-13, 1.599999999999991207, 80.00000000000000000 ) ) ;
#102 = EDGE_CURVE ( 'NONE', #77, #77, #97, .T. ) ;
#103 = LOCAL_TIME ( 13, 57, 29.00000000000000000, #128 ) ;
#104 = APPROVAL_ROLE ( '' ) ;
#105 = CARTESIAN_POINT ( 'NONE',  ( 2.779219145719134403E-13, -9.748188521212932624E-15, 79.60000000000000853 ) ) ;
#106 = ORIENTED_EDGE ( 'NONE', *, *, #191, .T. ) ;
#107 = PERSON ( 'UNSPECIFIED', 'UNSPECIFIED', 'UNSPECIFIED', ('UNSPECIFIED'), ('UNSPECIFIED'), ('UNSPECIFIED') ) ;
#108 = CARTESIAN_POINT ( 'NONE',  ( 4.189777606611760026E-14, 2.024675706593528571E-32, 12.00000000000000000 ) ) ;
#109 = ADVANCED_FACE ( 'NONE', ( #112 ), #111, .F. ) ;
#110 = DIRECTION ( 'NONE',  ( 3.491481338843133355E-15, -1.224646799147353207E-16, 1.000000000000000000 ) ) ;
#111 = PLANE ( 'NONE',  #43 ) ;
#112 = FACE_OUTER_BOUND ( 'NONE', #47, .T. ) ;
#113 = AXIS2_PLACEMENT_3D ( 'NONE', #183, #160, #234 ) ;
#114 = DIRECTION ( 'NONE',  ( -4.275831445896958607E-31, -1.000000000000000000, -1.224646799147353207E-16 ) ) ;
#115 = APPROVAL_ROLE ( '' ) ;
#116 = UNCERTAINTY_MEASURE_WITH_UNIT (LENGTH_MEASURE( 1.000000000000000082E-05 ), #78, 'distance_accuracy_value', 'NONE');
#117 = DATE_AND_TIME ( #39, #36 ) ;
#118 =( GEOMETRIC_REPRESENTATION_CONTEXT ( 3 ) GLOBAL_UNCERTAINTY_ASSIGNED_CONTEXT ( ( #116 ) ) GLOBAL_UNIT_ASSIGNED_CONTEXT ( ( #78, #221, #243 ) ) REPRESENTATION_CONTEXT ( 'NONE', 'WORKASPACE' ) );
#119 = CARTESIAN_POINT ( 'NONE',  ( 4.189777606611760026E-14, 2.700000000000028599, 12.00000000000000000 ) ) ;
#120 = AXIS2_PLACEMENT_3D ( 'NONE', #196, #89, #215 ) ;
#121 = AXIS2_PLACEMENT_3D ( 'NONE', #59, #60, #187 ) ;
#122 = APPROVAL_PERSON_ORGANIZATION ( #171, #237, #41 ) ;
#123 = LOCAL_TIME ( 13, 57, 29.00000000000000000, #222 ) ;
#124 = CALENDAR_DATE ( 2021, 2, 12 ) ;
#125 = DATE_AND_TIME ( #46, #103 ) ;
#126 = EDGE_LOOP ( 'NONE', ( #179 ) ) ;
#127 = ORIENTED_EDGE ( 'NONE', *, *, #233, .F. ) ;
#128 = COORDINATED_UNIVERSAL_TIME_OFFSET ( 1, 0, .AHEAD. ) ;
#129 = PRODUCT_DEFINITION ( 'UNKNOWN', '', #76, #64 ) ;
#130 = FACE_BOUND ( 'NONE', #231, .T. ) ;
#131 = FACE_OUTER_BOUND ( 'NONE', #156, .T. ) ;
#132 = CARTESIAN_POINT ( 'NONE',  ( -4.917206162781563091E-31, 1.724723750061157597E-32, -1.408343819019473777E-16 ) ) ;
#133 = DIRECTION ( 'NONE',  ( 0.0000000000000000000, 1.000000000000000000, 0.0000000000000000000 ) ) ;
#134 = AXIS2_PLACEMENT_3D ( 'NONE', #105, #71, #164 ) ;
#135 = FACE_OUTER_BOUND ( 'NONE', #66, .T. ) ;
#136 = PERSON_AND_ORGANIZATION_ROLE ( 'creator' ) ;
#137 = AXIS2_PLACEMENT_3D ( 'NONE', #33, #197, #68 ) ;
#138 = VERTEX_POINT ( 'NONE', #205 ) ;
#139 = MECHANICAL_CONTEXT ( 'NONE', #28, 'mechanical' ) ;
#140 = DIRECTION ( 'NONE',  ( -3.491481338843133355E-15, 1.224646799147353207E-16, -1.000000000000000000 ) ) ;
#141 = AXIS2_PLACEMENT_3D ( 'NONE', #162, #217, #53 ) ;
#142 = PERSON_AND_ORGANIZATION ( #107, #159 ) ;
#143 = ORIENTED_EDGE ( 'NONE', *, *, #93, .T. ) ;
#144 = FACE_OUTER_BOUND ( 'NONE', #178, .T. ) ;
#145 = DIRECTION ( 'NONE',  ( 0.0000000000000000000, 1.000000000000000000, 0.0000000000000000000 ) ) ;
#146 = EDGE_CURVE ( 'NONE', #74, #74, #75, .T. ) ;
#147 = CARTESIAN_POINT ( 'NONE',  ( 1.396592535537251370E-15, -4.898587196589405680E-17, 0.3999999999999994116 ) ) ;
#148 = DIRECTION ( 'NONE',  ( -3.491481338843133355E-15, 1.224646799147353207E-16, -1.000000000000000000 ) ) ;
#149 = FACE_OUTER_BOUND ( 'NONE', #177, .T. ) ;
#150 = AXIS2_PLACEMENT_3D ( 'NONE', #147, #12, #165 ) ;
#151 = CC_DESIGN_PERSON_AND_ORGANIZATION_ASSIGNMENT ( #56, #136, ( #129 ) ) ;
#152 = PERSON_AND_ORGANIZATION ( #107, #159 ) ;
#153 = COORDINATED_UNIVERSAL_TIME_OFFSET ( 1, 0, .AHEAD. ) ;
#154 = ADVANCED_FACE ( 'NONE', ( #135, #10 ), #166, .T. ) ;
#155 = ORIENTED_EDGE ( 'NONE', *, *, #167, .T. ) ;
#156 = EDGE_LOOP ( 'NONE', ( #23 ) ) ;
#157 = PERSON_AND_ORGANIZATION_ROLE ( 'creator' ) ;
#158 = AXIS2_PLACEMENT_3D ( 'NONE', #11, #148, #70 ) ;
#159 = ORGANIZATION ( 'UNSPECIFIED', 'UNSPECIFIED', '' ) ;
#160 = DIRECTION ( 'NONE',  ( 3.491481338843133355E-15, -1.224646799147353207E-16, 1.000000000000000000 ) ) ;
#161 = FACE_OUTER_BOUND ( 'NONE', #6, .T. ) ;
#162 = CARTESIAN_POINT ( 'NONE',  ( 2.793185071074506684E-13, -9.797174393178826052E-15, 80.00000000000000000 ) ) ;
#163 = CC_DESIGN_PERSON_AND_ORGANIZATION_ASSIGNMENT ( #208, #229, ( #67 ) ) ;
#164 = DIRECTION ( 'NONE',  ( 0.0000000000000000000, 1.000000000000000000, 0.0000000000000000000 ) ) ;
#165 = DIRECTION ( 'NONE',  ( 4.279844320860475851E-31, 1.000000000000000000, 1.204669080539435785E-16 ) ) ;
#166 = CONICAL_SURFACE ( 'NONE', #90, 1.600000000000000977, 0.7853981633974512766 ) ;
#167 = EDGE_CURVE ( 'NONE', #58, #58, #240, .T. ) ;
#168 = CARTESIAN_POINT ( 'NONE',  ( 4.189777606611760026E-14, -1.469576158976823947E-15, 12.00000000000000000 ) ) ;
#169 = CLOSED_SHELL ( 'NONE', ( #109, #195, #35, #154, #19 ) ) ;
#170 = PERSON_AND_ORGANIZATION ( #107, #159 ) ;
#171 = PERSON_AND_ORGANIZATION ( #107, #159 ) ;
#172 = ADVANCED_FACE ( 'NONE', ( #161, #180 ), #227, .T. ) ;
#173 = VERTEX_POINT ( 'NONE', #242 ) ;
#174 = CONICAL_SURFACE ( 'NONE', #82, 2.700000000000029932, 0.5235987755983000369 ) ;
#175 = DATE_AND_TIME ( #124, #57 ) ;
#176 = CC_DESIGN_APPROVAL ( #1, ( #76 ) ) ;
#177 = EDGE_LOOP ( 'NONE', ( #26 ) ) ;
#178 = EDGE_LOOP ( 'NONE', ( #85 ) ) ;
#179 = ORIENTED_EDGE ( 'NONE', *, *, #93, .F. ) ;
#180 = FACE_BOUND ( 'NONE', #3, .T. ) ;
#181 = CARTESIAN_POINT ( 'NONE',  ( 4.189777606611760026E-14, -1.469576158976823947E-15, 12.00000000000000000 ) ) ;
#182 = MANIFOLD_SOLID_BREP ( 'Corps-Déplacer/Copier1[1]', #169 ) ;
#183 = CARTESIAN_POINT ( 'NONE',  ( -9.834412325563126183E-31, 3.449447500122315194E-32, -2.816687638038947555E-16 ) ) ;
#184 = DIRECTION ( 'NONE',  ( -3.491481338843133355E-15, 1.224646799147353207E-16, -1.000000000000000000 ) ) ;
#185 = CARTESIAN_POINT ( 'NONE',  ( -9.834412325563126183E-31, 3.449447500122315194E-32, -2.816687638038947555E-16 ) ) ;
#186 = ADVANCED_FACE ( 'NONE', ( #131, #31 ), #92, .T. ) ;
#187 = DIRECTION ( 'NONE',  ( 1.000000000000000000, 0.0000000000000000000, 0.0000000000000000000 ) ) ;
#188 = APPROVAL_DATE_TIME ( #117, #1 ) ;
#189 = DIRECTION ( 'NONE',  ( 0.0000000000000000000, 1.000000000000000000, 0.0000000000000000000 ) ) ;
#190 = CIRCLE ( 'NONE', #150, 2.700000000000030376 ) ;
#191 = EDGE_CURVE ( 'NONE', #138, #138, #204, .T. ) ;
#192 = APPROVAL ( #61, 'UNSPECIFIED' ) ;
#193 = PERSON_AND_ORGANIZATION_ROLE ( 'design_supplier' ) ;
#194 = FACE_OUTER_BOUND ( 'NONE', #48, .T. ) ;
#195 = ADVANCED_FACE ( 'NONE', ( #130, #194 ), #174, .T. ) ;
#196 = CARTESIAN_POINT ( 'NONE',  ( 4.189777606611760026E-14, -1.469576158976823947E-15, 12.00000000000000000 ) ) ;
#197 = DIRECTION ( 'NONE',  ( -3.491481338843133355E-15, 1.224646799147353207E-16, -1.000000000000000000 ) ) ;
#198 = DIRECTION ( 'NONE',  ( 3.491481338843133355E-15, -1.224646799147353207E-16, 1.000000000000000000 ) ) ;
#199 = CIRCLE ( 'NONE', #134, 2.000000000000000888 ) ;
#200 = DIRECTION ( 'NONE',  ( 4.275831445896958607E-31, 1.000000000000000000, 1.224646799147353207E-16 ) ) ;
#201 = APPROVAL_PERSON_ORGANIZATION ( #228, #192, #104 ) ;
#202 = CALENDAR_DATE ( 2021, 2, 12 ) ;
#203 = COORDINATED_UNIVERSAL_TIME_OFFSET ( 1, 0, .AHEAD. ) ;
#204 = CIRCLE ( 'NONE', #100, 1.999999999999992228 ) ;
#205 = CARTESIAN_POINT ( 'NONE',  ( 4.613097221690625778E-14, 1.999999999999990452, 13.21243556529827679 ) ) ;
#206 = ADVANCED_BREP_SHAPE_REPRESENTATION ( '321766', ( #182, #17, #121 ), #118 ) ;
#207 = ORIENTED_EDGE ( 'NONE', *, *, #146, .F. ) ;
#208 = PERSON_AND_ORGANIZATION ( #107, #159 ) ;
#209 = COORDINATED_UNIVERSAL_TIME_OFFSET ( 1, 0, .AHEAD. ) ;
#210 = APPROVAL_DATE_TIME ( #175, #192 ) ;
#211 = EDGE_LOOP ( 'NONE', ( #155 ) ) ;
#212 = ORIENTED_EDGE ( 'NONE', *, *, #233, .T. ) ;
#213 = CARTESIAN_POINT ( 'NONE',  ( 4.613097221690625778E-14, -1.618056692398318503E-15, 13.21243556529827679 ) ) ;
#214 = ADVANCED_FACE ( 'NONE', ( #235 ), #238, .T. ) ;
#215 = DIRECTION ( 'NONE',  ( 0.0000000000000000000, 1.000000000000000000, 0.0000000000000000000 ) ) ;
#216 = DIRECTION ( 'NONE',  ( -3.491481338843133355E-15, 1.224646799147353207E-16, -1.000000000000000000 ) ) ;
#217 = DIRECTION ( 'NONE',  ( -3.491481338843133355E-15, 1.224646799147353207E-16, -1.000000000000000000 ) ) ;
#218 = PLANE ( 'NONE',  #22 ) ;
#219 = CC_DESIGN_APPROVAL ( #237, ( #129 ) ) ;
#220 = APPROVAL_PERSON_ORGANIZATION ( #170, #1, #115 ) ;
#221 =( NAMED_UNIT ( * ) PLANE_ANGLE_UNIT ( ) SI_UNIT ( $, .RADIAN. ) );
#222 = COORDINATED_UNIVERSAL_TIME_OFFSET ( 1, 0, .AHEAD. ) ;
#223 = CARTESIAN_POINT ( 'NONE',  ( 0.0000000000000000000, 2.300000000000028688, 0.0000000000000000000 ) ) ;
#224 = PRODUCT_DEFINITION_SHAPE ( 'NONE', 'NONE',  #129 ) ;
#225 = CC_DESIGN_PERSON_AND_ORGANIZATION_ASSIGNMENT ( #152, #21, ( #20 ) ) ;
#226 = ORIENTED_EDGE ( 'NONE', *, *, #5, .F. ) ;
#227 = CONICAL_SURFACE ( 'NONE', #113, 2.300000000000028688, 0.7853981633974510546 ) ;
#228 = PERSON_AND_ORGANIZATION ( #107, #159 ) ;
#229 = PERSON_AND_ORGANIZATION_ROLE ( 'classification_officer' ) ;
#230 = CC_DESIGN_APPROVAL ( #192, ( #67 ) ) ;
#231 = EDGE_LOOP ( 'NONE', ( #106 ) ) ;
#232 = EDGE_LOOP ( 'NONE', ( #25 ) ) ;
#233 = EDGE_CURVE ( 'NONE', #15, #15, #73, .T. ) ;
#234 = DIRECTION ( 'NONE',  ( -4.275831445896957731E-31, -1.000000000000000000, -1.224646799147353207E-16 ) ) ;
#235 = FACE_OUTER_BOUND ( 'NONE', #27, .T. ) ;
#236 = DIRECTION ( 'NONE',  ( 4.275831445896958607E-31, 1.000000000000000000, 1.224646799147353207E-16 ) ) ;
#237 = APPROVAL ( #241, 'UNSPECIFIED' ) ;
#238 = PLANE ( 'NONE',  #49 ) ;
#239 = FACE_OUTER_BOUND ( 'NONE', #44, .T. ) ;
#240 = CIRCLE ( 'NONE', #141, 1.600000000000000977 ) ;
#241 = APPROVAL_STATUS ( 'not_yet_approved' ) ;
#242 = CARTESIAN_POINT ( 'NONE',  ( 2.779219145719134403E-13, 1.999999999999991340, 79.60000000000000853 ) ) ;
#243 =( NAMED_UNIT ( * ) SI_UNIT ( $, .STERADIAN. ) SOLID_ANGLE_UNIT ( ) );
ENDSEC;
END-ISO-10303-21;
