ISO-10303-21;
HEADER;
FILE_DESCRIPTION (( 'STEP AP203' ),
    '1' );
FILE_NAME ('321761.step',
    '2021-12-02T12:57:25',
    ( '' ),
    ( '' ),
    'SwSTEP 2.0',
    'SolidWorks 2019',
    '' );
FILE_SCHEMA (( 'CONFIG_CONTROL_DESIGN' ));
ENDSEC;

DATA;
#1 = DIRECTION ( 'NONE',  ( 0.0000000000000000000, 1.000000000000000000, 0.0000000000000000000 ) ) ;
#2 = CONICAL_SURFACE ( 'NONE', #197, 1.600000000000000977, 0.7853981633974512766 ) ;
#3 = MANIFOLD_SOLID_BREP ( 'Corps-Déplacer/Copier1[2]', #165 ) ;
#4 = LOCAL_TIME ( 13, 57, 25.00000000000000000, #34 ) ;
#5 = CARTESIAN_POINT ( 'NONE',  ( 2.793185071074506684E-13, 1.199807826129472128E-32, 80.00000000000000000 ) ) ;
#6 = PLANE ( 'NONE',  #9 ) ;
#7 = VERTEX_POINT ( 'NONE', #117 ) ;
#8 = EDGE_CURVE ( 'NONE', #7, #7, #200, .T. ) ;
#9 = AXIS2_PLACEMENT_3D ( 'NONE', #25, #149, #59 ) ;
#10 = CARTESIAN_POINT ( 'NONE',  ( 2.793185071074506684E-13, 1.599999999999991207, 80.00000000000000000 ) ) ;
#11 = AXIS2_PLACEMENT_3D ( 'NONE', #196, #31, #83 ) ;
#12 = CC_DESIGN_DATE_AND_TIME_ASSIGNMENT ( #13, #100, ( #119 ) ) ;
#13 = DATE_AND_TIME ( #154, #66 ) ;
#14 = PERSON_AND_ORGANIZATION ( #108, #166 ) ;
#15 = CARTESIAN_POINT ( 'NONE',  ( 4.597978664009241412E-14, 1.999999999999990452, 13.16913429510906219 ) ) ;
#16 = PERSON_AND_ORGANIZATION ( #108, #166 ) ;
#17 = CC_DESIGN_DATE_AND_TIME_ASSIGNMENT ( #163, #19, ( #216 ) ) ;
#18 = ORIENTED_EDGE ( 'NONE', *, *, #145, .T. ) ;
#19 = DATE_TIME_ROLE ( 'classification_date' ) ;
#20 = LOCAL_TIME ( 13, 57, 25.00000000000000000, #86 ) ;
#21 = PERSON_AND_ORGANIZATION_ROLE ( 'classification_officer' ) ;
#22 = EDGE_LOOP ( 'NONE', ( #140 ) ) ;
#23 = DIRECTION ( 'NONE',  ( 4.319842865915239115E-31, 1.000000000000000000, 1.215927670077185400E-16 ) ) ;
#24 = CIRCLE ( 'NONE', #151, 1.999999999999992228 ) ;
#25 = CARTESIAN_POINT ( 'NONE',  ( -4.863758269707861815E-31, 1.705976752777888345E-32, -1.393035734030134793E-16 ) ) ;
#26 = CARTESIAN_POINT ( 'NONE',  ( 0.0000000000000000000, 0.0000000000000000000, 0.0000000000000000000 ) ) ;
#27 = CARTESIAN_POINT ( 'NONE',  ( 0.0000000000000000000, 0.0000000000000000000, 0.0000000000000000000 ) ) ;
#28 = CIRCLE ( 'NONE', #47, 2.675000000000034905 ) ;
#29 = DIRECTION ( 'NONE',  ( 0.0000000000000000000, 1.000000000000000000, 0.0000000000000000000 ) ) ;
#30 = APPROVAL_DATE_TIME ( #194, #143 ) ;
#31 = DIRECTION ( 'NONE',  ( 0.0000000000000000000, 0.0000000000000000000, 1.000000000000000000 ) ) ;
#32 = PERSON_AND_ORGANIZATION ( #108, #166 ) ;
#33 = PRODUCT ( '321761', '321761', '', ( #98 ) ) ;
#34 = COORDINATED_UNIVERSAL_TIME_OFFSET ( 1, 0, .AHEAD. ) ;
#35 = CARTESIAN_POINT ( 'NONE',  ( 1.396592535537252553E-15, 2.675000000000034905, 0.3999999999999997446 ) ) ;
#36 = AXIS2_PLACEMENT_3D ( 'NONE', #26, #210, #128 ) ;
#37 = EDGE_LOOP ( 'NONE', ( #89 ) ) ;
#38 = EDGE_LOOP ( 'NONE', ( #181 ) ) ;
#39 = FACE_OUTER_BOUND ( 'NONE', #138, .T. ) ;
#40 = DIRECTION ( 'NONE',  ( -4.275831445896958607E-31, -1.000000000000000000, -1.224646799147353207E-16 ) ) ;
#41 = EDGE_CURVE ( 'NONE', #68, #68, #142, .T. ) ;
#42 = FACE_OUTER_BOUND ( 'NONE', #37, .T. ) ;
#43 = DIRECTION ( 'NONE',  ( -4.275831445896957731E-31, -1.000000000000000000, -1.224646799147353207E-16 ) ) ;
#44 = LOCAL_TIME ( 13, 57, 25.00000000000000000, #176 ) ;
#45 = PERSON_AND_ORGANIZATION_ROLE ( 'design_owner' ) ;
#46 = COORDINATED_UNIVERSAL_TIME_OFFSET ( 1, 0, .AHEAD. ) ;
#47 = AXIS2_PLACEMENT_3D ( 'NONE', #170, #112, #29 ) ;
#48 = DATE_AND_TIME ( #82, #44 ) ;
#49 = ADVANCED_FACE ( 'NONE', ( #191, #93 ), #225, .T. ) ;
#50 = VERTEX_POINT ( 'NONE', #133 ) ;
#51 = EDGE_LOOP ( 'NONE', ( #54 ) ) ;
#52 = APPROVAL_PERSON_ORGANIZATION ( #14, #143, #99 ) ;
#53 = CALENDAR_DATE ( 2021, 2, 12 ) ;
#54 = ORIENTED_EDGE ( 'NONE', *, *, #206, .F. ) ;
#55 = ADVANCED_FACE ( 'NONE', ( #109 ), #6, .T. ) ;
#56 = AXIS2_PLACEMENT_3D ( 'NONE', #62, #146, #43 ) ;
#57 = DESIGN_CONTEXT ( 'detailed design', #236, 'design' ) ;
#58 = CARTESIAN_POINT ( 'NONE',  ( -9.727516539415723631E-31, 3.411953505555776691E-32, -2.786071468060269586E-16 ) ) ;
#59 = DIRECTION ( 'NONE',  ( 4.275831445896958607E-31, 1.000000000000000000, 1.224646799147353207E-16 ) ) ;
#60 = PRODUCT_DEFINITION_FORMATION_WITH_SPECIFIED_SOURCE ( 'ANY', '', #33, .NOT_KNOWN. ) ;
#61 = FACE_OUTER_BOUND ( 'NONE', #51, .T. ) ;
#62 = CARTESIAN_POINT ( 'NONE',  ( -9.727516539415723631E-31, 3.411953505555776691E-32, -2.786071468060269586E-16 ) ) ;
#63 = CARTESIAN_POINT ( 'NONE',  ( 4.597978664009241412E-14, -1.612753816204694860E-15, 13.16913429510906219 ) ) ;
#64 = AXIS2_PLACEMENT_3D ( 'NONE', #58, #174, #212 ) ;
#65 = CC_DESIGN_PERSON_AND_ORGANIZATION_ASSIGNMENT ( #233, #132, ( #119 ) ) ;
#66 = LOCAL_TIME ( 13, 57, 25.00000000000000000, #46 ) ;
#67 = ADVANCED_BREP_SHAPE_REPRESENTATION ( '321761', ( #158, #3, #11 ), #219 ) ;
#68 = VERTEX_POINT ( 'NONE', #177 ) ;
#69 = ADVANCED_FACE ( 'NONE', ( #39 ), #80, .T. ) ;
#70 =( NAMED_UNIT ( * ) PLANE_ANGLE_UNIT ( ) SI_UNIT ( $, .RADIAN. ) );
#71 = EDGE_LOOP ( 'NONE', ( #106 ) ) ;
#72 = EDGE_LOOP ( 'NONE', ( #205 ) ) ;
#73 = AXIS2_PLACEMENT_3D ( 'NONE', #164, #75, #231 ) ;
#74 = CC_DESIGN_PERSON_AND_ORGANIZATION_ASSIGNMENT ( #202, #21, ( #216 ) ) ;
#75 = DIRECTION ( 'NONE',  ( -3.491481338843133355E-15, 1.224646799147353207E-16, -1.000000000000000000 ) ) ;
#76 = DIRECTION ( 'NONE',  ( -3.491481338843133355E-15, 1.224646799147353207E-16, -1.000000000000000000 ) ) ;
#77 = DIRECTION ( 'NONE',  ( 0.0000000000000000000, 1.000000000000000000, 0.0000000000000000000 ) ) ;
#78 = CC_DESIGN_APPROVAL ( #143, ( #119 ) ) ;
#79 = DIRECTION ( 'NONE',  ( 4.275831445896958607E-31, 1.000000000000000000, 1.224646799147353207E-16 ) ) ;
#80 = PLANE ( 'NONE',  #232 ) ;
#81 = PRODUCT_RELATED_PRODUCT_CATEGORY ( 'detail', '', ( #33 ) ) ;
#82 = CALENDAR_DATE ( 2021, 2, 12 ) ;
#83 = DIRECTION ( 'NONE',  ( 1.000000000000000000, 0.0000000000000000000, 0.0000000000000000000 ) ) ;
#84 = CIRCLE ( 'NONE', #222, 2.000000000000000888 ) ;
#85 = VERTEX_POINT ( 'NONE', #10 ) ;
#86 = COORDINATED_UNIVERSAL_TIME_OFFSET ( 1, 0, .AHEAD. ) ;
#87 = ORIENTED_EDGE ( 'NONE', *, *, #8, .F. ) ;
#88 = DATE_AND_TIME ( #156, #102 ) ;
#89 = ORIENTED_EDGE ( 'NONE', *, *, #8, .T. ) ;
#90 = ADVANCED_FACE ( 'NONE', ( #209, #130 ), #111, .T. ) ;
#91 = SECURITY_CLASSIFICATION_LEVEL ( 'unclassified' ) ;
#92 = DIRECTION ( 'NONE',  ( 3.491481338843133355E-15, -1.224646799147353207E-16, 1.000000000000000000 ) ) ;
#93 = FACE_OUTER_BOUND ( 'NONE', #124, .T. ) ;
#94 = CARTESIAN_POINT ( 'NONE',  ( 2.793185071074506684E-13, -9.797174393178826052E-15, 80.00000000000000000 ) ) ;
#95 = CARTESIAN_POINT ( 'NONE',  ( 4.189777606611760026E-14, -1.469576158976823947E-15, 12.00000000000000000 ) ) ;
#96 = FACE_BOUND ( 'NONE', #22, .T. ) ;
#97 = VERTEX_POINT ( 'NONE', #179 ) ;
#98 = MECHANICAL_CONTEXT ( 'NONE', #118, 'mechanical' ) ;
#99 = APPROVAL_ROLE ( '' ) ;
#100 = DATE_TIME_ROLE ( 'creation_date' ) ;
#101 = VERTEX_POINT ( 'NONE', #35 ) ;
#102 = LOCAL_TIME ( 13, 57, 25.00000000000000000, #204 ) ;
#103 = ORIENTED_EDGE ( 'NONE', *, *, #224, .T. ) ;
#104 = PERSON_AND_ORGANIZATION_ROLE ( 'design_supplier' ) ;
#105 = CIRCLE ( 'NONE', #192, 1.600000000000000977 ) ;
#106 = ORIENTED_EDGE ( 'NONE', *, *, #141, .T. ) ;
#107 = DIRECTION ( 'NONE',  ( 0.0000000000000000000, 1.000000000000000000, 0.0000000000000000000 ) ) ;
#108 = PERSON ( 'UNSPECIFIED', 'UNSPECIFIED', 'UNSPECIFIED', ('UNSPECIFIED'), ('UNSPECIFIED'), ('UNSPECIFIED') ) ;
#109 = FACE_OUTER_BOUND ( 'NONE', #125, .T. ) ;
#110 = APPROVAL_PERSON_ORGANIZATION ( #16, #213, #183 ) ;
#111 = CYLINDRICAL_SURFACE ( 'NONE', #36, 2.675000000000034905 ) ;
#112 = DIRECTION ( 'NONE',  ( -3.491481338843133355E-15, 1.224646799147353207E-16, -1.000000000000000000 ) ) ;
#113 = ADVANCED_FACE ( 'NONE', ( #42 ), #243, .F. ) ;
#114 = CARTESIAN_POINT ( 'NONE',  ( 2.793185071074506684E-13, -9.797174393178826052E-15, 80.00000000000000000 ) ) ;
#115 = CALENDAR_DATE ( 2021, 2, 12 ) ;
#116 = APPROVAL_ROLE ( '' ) ;
#117 = CARTESIAN_POINT ( 'NONE',  ( 4.189777606611760026E-14, 2.675000000000033573, 12.00000000000000000 ) ) ;
#118 = APPLICATION_CONTEXT ( 'configuration controlled 3d designs of mechanical parts and assemblies' ) ;
#119 = PRODUCT_DEFINITION ( 'UNKNOWN', '', #60, #57 ) ;
#120 = PERSON_AND_ORGANIZATION ( #108, #166 ) ;
#121 = ORIENTED_EDGE ( 'NONE', *, *, #41, .T. ) ;
#122 = ADVANCED_FACE ( 'NONE', ( #208, #188 ), #2, .T. ) ;
#123 = APPROVAL_STATUS ( 'not_yet_approved' ) ;
#124 = EDGE_LOOP ( 'NONE', ( #103 ) ) ;
#125 = EDGE_LOOP ( 'NONE', ( #121 ) ) ;
#126 = DIRECTION ( 'NONE',  ( -3.491481338843133355E-15, 1.224646799147353207E-16, -1.000000000000000000 ) ) ;
#127 = AXIS2_PLACEMENT_3D ( 'NONE', #167, #223, #193 ) ;
#128 = DIRECTION ( 'NONE',  ( 4.275831445896958607E-31, 1.000000000000000000, 1.224646799147353207E-16 ) ) ;
#129 = DIRECTION ( 'NONE',  ( -3.491481338843133355E-15, 1.224646799147353207E-16, -1.000000000000000000 ) ) ;
#130 = FACE_OUTER_BOUND ( 'NONE', #38, .T. ) ;
#131 = DIRECTION ( 'NONE',  ( -3.491481338843133355E-15, 1.224646799147353207E-16, -1.000000000000000000 ) ) ;
#132 = PERSON_AND_ORGANIZATION_ROLE ( 'creator' ) ;
#133 = CARTESIAN_POINT ( 'NONE',  ( 2.779219145719134403E-13, 1.999999999999991340, 79.60000000000000853 ) ) ;
#134 = PERSON_AND_ORGANIZATION ( #108, #166 ) ;
#135 = VERTEX_POINT ( 'NONE', #15 ) ;
#136 = EDGE_LOOP ( 'NONE', ( #221 ) ) ;
#137 = PERSON_AND_ORGANIZATION_ROLE ( 'creator' ) ;
#138 = EDGE_LOOP ( 'NONE', ( #162 ) ) ;
#139 = ADVANCED_FACE ( 'NONE', ( #186, #150 ), #211, .T. ) ;
#140 = ORIENTED_EDGE ( 'NONE', *, *, #41, .F. ) ;
#141 = EDGE_CURVE ( 'NONE', #97, #97, #28, .T. ) ;
#142 = CIRCLE ( 'NONE', #64, 2.275000000000033662 ) ;
#143 = APPROVAL ( #152, 'UNSPECIFIED' ) ;
#144 = CARTESIAN_POINT ( 'NONE',  ( 4.189777606611760026E-14, 2.005928709310259046E-32, 12.00000000000000000 ) ) ;
#145 = EDGE_CURVE ( 'NONE', #135, #135, #24, .T. ) ;
#146 = DIRECTION ( 'NONE',  ( 3.491481338843133355E-15, -1.224646799147353207E-16, 1.000000000000000000 ) ) ;
#147 = AXIS2_PLACEMENT_3D ( 'NONE', #95, #126, #189 ) ;
#148 = DIRECTION ( 'NONE',  ( -3.491481338843133355E-15, 1.224646799147353207E-16, -1.000000000000000000 ) ) ;
#149 = DIRECTION ( 'NONE',  ( -3.491481338843133355E-15, 1.224646799147353207E-16, -1.000000000000000000 ) ) ;
#150 = FACE_OUTER_BOUND ( 'NONE', #238, .T. ) ;
#151 = AXIS2_PLACEMENT_3D ( 'NONE', #63, #172, #77 ) ;
#152 = APPROVAL_STATUS ( 'not_yet_approved' ) ;
#153 = DIRECTION ( 'NONE',  ( 0.0000000000000000000, 1.000000000000000000, 0.0000000000000000000 ) ) ;
#154 = CALENDAR_DATE ( 2021, 2, 12 ) ;
#155 = AXIS2_PLACEMENT_3D ( 'NONE', #5, #129, #79 ) ;
#156 = CALENDAR_DATE ( 2021, 2, 12 ) ;
#157 = EDGE_LOOP ( 'NONE', ( #220 ) ) ;
#158 = MANIFOLD_SOLID_BREP ( 'Corps-Déplacer/Copier1[1]', #159 ) ;
#159 = CLOSED_SHELL ( 'NONE', ( #113, #139, #49, #122, #190 ) ) ;
#160 = CC_DESIGN_PERSON_AND_ORGANIZATION_ASSIGNMENT ( #239, #104, ( #60 ) ) ;
#161 = APPROVAL_DATE_TIME ( #88, #213 ) ;
#162 = ORIENTED_EDGE ( 'NONE', *, *, #141, .F. ) ;
#163 = DATE_AND_TIME ( #53, #20 ) ;
#164 = CARTESIAN_POINT ( 'NONE',  ( 4.189777606611760026E-14, -1.469576158976823947E-15, 12.00000000000000000 ) ) ;
#165 = CLOSED_SHELL ( 'NONE', ( #90, #69, #55, #203 ) ) ;
#166 = ORGANIZATION ( 'UNSPECIFIED', 'UNSPECIFIED', '' ) ;
#167 = CARTESIAN_POINT ( 'NONE',  ( 4.189777606611760026E-14, 2.005928709310259046E-32, 12.00000000000000000 ) ) ;
#168 = DIRECTION ( 'NONE',  ( 4.275831445896958607E-31, 1.000000000000000000, 1.224646799147353207E-16 ) ) ;
#169 = EDGE_CURVE ( 'NONE', #101, #101, #187, .T. ) ;
#170 = CARTESIAN_POINT ( 'NONE',  ( 4.189777606611760026E-14, -1.469576158976823947E-15, 12.00000000000000000 ) ) ;
#171 = CONICAL_SURFACE ( 'NONE', #56, 2.275000000000033662, 0.7853981633974504994 ) ;
#172 = DIRECTION ( 'NONE',  ( -3.491481338843133355E-15, 1.224646799147353207E-16, -1.000000000000000000 ) ) ;
#173 = CC_DESIGN_APPROVAL ( #234, ( #60 ) ) ;
#174 = DIRECTION ( 'NONE',  ( -3.491481338843133355E-15, 1.224646799147353207E-16, -1.000000000000000000 ) ) ;
#175 = APPLICATION_PROTOCOL_DEFINITION ( 'international standard', 'config_control_design', 1994, #118 ) ;
#176 = COORDINATED_UNIVERSAL_TIME_OFFSET ( 1, 0, .AHEAD. ) ;
#177 = CARTESIAN_POINT ( 'NONE',  ( 0.0000000000000000000, 2.275000000000033662, 0.0000000000000000000 ) ) ;
#178 =( LENGTH_UNIT ( ) NAMED_UNIT ( * ) SI_UNIT ( .MILLI., .METRE. ) );
#179 = CARTESIAN_POINT ( 'NONE',  ( 4.189777606611760026E-14, 2.675000000000033573, 12.00000000000000000 ) ) ;
#180 = SHAPE_DEFINITION_REPRESENTATION ( #201, #67 ) ;
#181 = ORIENTED_EDGE ( 'NONE', *, *, #169, .F. ) ;
#182 = CC_DESIGN_PERSON_AND_ORGANIZATION_ASSIGNMENT ( #120, #137, ( #60 ) ) ;
#183 = APPROVAL_ROLE ( '' ) ;
#184 = AXIS2_PLACEMENT_3D ( 'NONE', #207, #228, #23 ) ;
#185 = CC_DESIGN_APPROVAL ( #213, ( #216 ) ) ;
#186 = FACE_BOUND ( 'NONE', #240, .T. ) ;
#187 = CIRCLE ( 'NONE', #184, 2.675000000000034905 ) ;
#188 = FACE_BOUND ( 'NONE', #218, .T. ) ;
#189 = DIRECTION ( 'NONE',  ( 0.0000000000000000000, 1.000000000000000000, 0.0000000000000000000 ) ) ;
#190 = ADVANCED_FACE ( 'NONE', ( #61 ), #242, .F. ) ;
#191 = FACE_OUTER_BOUND ( 'NONE', #136, .T. ) ;
#192 = AXIS2_PLACEMENT_3D ( 'NONE', #114, #131, #107 ) ;
#193 = DIRECTION ( 'NONE',  ( -4.275831445896958607E-31, -1.000000000000000000, -1.224646799147353207E-16 ) ) ;
#194 = DATE_AND_TIME ( #115, #4 ) ;
#195 = UNCERTAINTY_MEASURE_WITH_UNIT (LENGTH_MEASURE( 1.000000000000000082E-05 ), #178, 'distance_accuracy_value', 'NONE');
#196 = CARTESIAN_POINT ( 'NONE',  ( 0.0000000000000000000, 0.0000000000000000000, 0.0000000000000000000 ) ) ;
#197 = AXIS2_PLACEMENT_3D ( 'NONE', #94, #76, #1 ) ;
#198 = APPLICATION_PROTOCOL_DEFINITION ( 'international standard', 'config_control_design', 1994, #236 ) ;
#199 = DIRECTION ( 'NONE',  ( -3.491481338843133355E-15, 1.224646799147353207E-16, -1.000000000000000000 ) ) ;
#200 = CIRCLE ( 'NONE', #73, 2.675000000000034905 ) ;
#201 = PRODUCT_DEFINITION_SHAPE ( 'NONE', 'NONE',  #119 ) ;
#202 = PERSON_AND_ORGANIZATION ( #108, #166 ) ;
#203 = ADVANCED_FACE ( 'NONE', ( #229, #96 ), #171, .T. ) ;
#204 = COORDINATED_UNIVERSAL_TIME_OFFSET ( 1, 0, .AHEAD. ) ;
#205 = ORIENTED_EDGE ( 'NONE', *, *, #224, .F. ) ;
#206 = EDGE_CURVE ( 'NONE', #85, #85, #105, .T. ) ;
#207 = CARTESIAN_POINT ( 'NONE',  ( 1.396592535537251370E-15, -4.898587196589405680E-17, 0.3999999999999994116 ) ) ;
#208 = FACE_OUTER_BOUND ( 'NONE', #72, .T. ) ;
#209 = FACE_OUTER_BOUND ( 'NONE', #71, .T. ) ;
#210 = DIRECTION ( 'NONE',  ( -3.491481338843133355E-15, 1.224646799147353207E-16, -1.000000000000000000 ) ) ;
#211 = CONICAL_SURFACE ( 'NONE', #147, 2.675000000000034905, 0.5235987755983001479 ) ;
#212 = DIRECTION ( 'NONE',  ( 4.275831445896957731E-31, 1.000000000000000000, 1.224646799147353207E-16 ) ) ;
#213 = APPROVAL ( #123, 'UNSPECIFIED' ) ;
#214 = CARTESIAN_POINT ( 'NONE',  ( 2.779219145719134403E-13, -9.748188521212932624E-15, 79.60000000000000853 ) ) ;
#215 = APPROVAL_DATE_TIME ( #48, #234 ) ;
#216 = SECURITY_CLASSIFICATION ( '', '', #91 ) ;
#217 =( NAMED_UNIT ( * ) SI_UNIT ( $, .STERADIAN. ) SOLID_ANGLE_UNIT ( ) );
#218 = EDGE_LOOP ( 'NONE', ( #237 ) ) ;
#219 =( GEOMETRIC_REPRESENTATION_CONTEXT ( 3 ) GLOBAL_UNCERTAINTY_ASSIGNED_CONTEXT ( ( #195 ) ) GLOBAL_UNIT_ASSIGNED_CONTEXT ( ( #178, #70, #217 ) ) REPRESENTATION_CONTEXT ( 'NONE', 'WORKASPACE' ) );
#220 = ORIENTED_EDGE ( 'NONE', *, *, #169, .T. ) ;
#221 = ORIENTED_EDGE ( 'NONE', *, *, #145, .F. ) ;
#222 = AXIS2_PLACEMENT_3D ( 'NONE', #214, #199, #153 ) ;
#223 = DIRECTION ( 'NONE',  ( 3.491481338843133355E-15, -1.224646799147353207E-16, 1.000000000000000000 ) ) ;
#224 = EDGE_CURVE ( 'NONE', #50, #50, #84, .T. ) ;
#225 = CYLINDRICAL_SURFACE ( 'NONE', #226, 1.999999999999996669 ) ;
#226 = AXIS2_PLACEMENT_3D ( 'NONE', #27, #148, #168 ) ;
#227 = CC_DESIGN_SECURITY_CLASSIFICATION ( #216, ( #60 ) ) ;
#228 = DIRECTION ( 'NONE',  ( -3.491481338843133355E-15, 1.224646799147353207E-16, -1.000000000000000000 ) ) ;
#229 = FACE_OUTER_BOUND ( 'NONE', #157, .T. ) ;
#230 = CC_DESIGN_PERSON_AND_ORGANIZATION_ASSIGNMENT ( #32, #45, ( #33 ) ) ;
#231 = DIRECTION ( 'NONE',  ( 0.0000000000000000000, 1.000000000000000000, 0.0000000000000000000 ) ) ;
#232 = AXIS2_PLACEMENT_3D ( 'NONE', #144, #92, #40 ) ;
#233 = PERSON_AND_ORGANIZATION ( #108, #166 ) ;
#234 = APPROVAL ( #235, 'UNSPECIFIED' ) ;
#235 = APPROVAL_STATUS ( 'not_yet_approved' ) ;
#236 = APPLICATION_CONTEXT ( 'configuration controlled 3d designs of mechanical parts and assemblies' ) ;
#237 = ORIENTED_EDGE ( 'NONE', *, *, #206, .T. ) ;
#238 = EDGE_LOOP ( 'NONE', ( #87 ) ) ;
#239 = PERSON_AND_ORGANIZATION ( #108, #166 ) ;
#240 = EDGE_LOOP ( 'NONE', ( #18 ) ) ;
#241 = APPROVAL_PERSON_ORGANIZATION ( #134, #234, #116 ) ;
#242 = PLANE ( 'NONE',  #155 ) ;
#243 = PLANE ( 'NONE',  #127 ) ;
ENDSEC;
END-ISO-10303-21;
