ISO-10303-21;
HEADER;
FILE_DESCRIPTION (( 'STEP AP203' ),
    '1' );
FILE_NAME ('321756.step',
    '2021-12-02T12:57:22',
    ( '' ),
    ( '' ),
    'SwSTEP 2.0',
    'SolidWorks 2019',
    '' );
FILE_SCHEMA (( 'CONFIG_CONTROL_DESIGN' ));
ENDSEC;

DATA;
#1 = COORDINATED_UNIVERSAL_TIME_OFFSET ( 1, 0, .AHEAD. ) ;
#2 = ORIENTED_EDGE ( 'NONE', *, *, #89, .T. ) ;
#3 = EDGE_LOOP ( 'NONE', ( #209 ) ) ;
#4 = CLOSED_SHELL ( 'NONE', ( #95, #202, #120, #144, #116 ) ) ;
#5 = CC_DESIGN_APPROVAL ( #214, ( #13 ) ) ;
#6 = DIRECTION ( 'NONE',  ( 4.275831445896958607E-31, 1.000000000000000000, 1.224646799147353207E-16 ) ) ;
#7 = PLANE ( 'NONE',  #237 ) ;
#8 = FACE_OUTER_BOUND ( 'NONE', #94, .T. ) ;
#9 = DIRECTION ( 'NONE',  ( -3.491481338843133355E-15, 1.224646799147353207E-16, -1.000000000000000000 ) ) ;
#10 = DIRECTION ( 'NONE',  ( -3.491481338843133355E-15, 1.224646799147353207E-16, -1.000000000000000000 ) ) ;
#11 = PRODUCT_DEFINITION ( 'UNKNOWN', '', #13, #207 ) ;
#12 = CIRCLE ( 'NONE', #152, 2.000000000000000888 ) ;
#13 = PRODUCT_DEFINITION_FORMATION_WITH_SPECIFIED_SOURCE ( 'ANY', '', #54, .NOT_KNOWN. ) ;
#14 = CALENDAR_DATE ( 2021, 2, 12 ) ;
#15 = CARTESIAN_POINT ( 'NONE',  ( 4.582860106327854521E-14, -1.607450940011070427E-15, 13.12583302491984227 ) ) ;
#16 = CALENDAR_DATE ( 2021, 2, 12 ) ;
#17 = DATE_TIME_ROLE ( 'creation_date' ) ;
#18 = APPROVAL_PERSON_ORGANIZATION ( #31, #214, #201 ) ;
#19 = EDGE_LOOP ( 'NONE', ( #113 ) ) ;
#20 = EDGE_CURVE ( 'NONE', #55, #55, #196, .T. ) ;
#21 = CARTESIAN_POINT ( 'NONE',  ( 4.189777606611760026E-14, 1.987181712026985963E-32, 12.00000000000000000 ) ) ;
#22 = ADVANCED_BREP_SHAPE_REPRESENTATION ( '321756', ( #138, #65, #156 ), #26 ) ;
#23 = DIRECTION ( 'NONE',  ( 3.491481338843133355E-15, -1.224646799147353207E-16, 1.000000000000000000 ) ) ;
#24 = FACE_OUTER_BOUND ( 'NONE', #19, .T. ) ;
#25 = FACE_OUTER_BOUND ( 'NONE', #3, .T. ) ;
#26 =( GEOMETRIC_REPRESENTATION_CONTEXT ( 3 ) GLOBAL_UNCERTAINTY_ASSIGNED_CONTEXT ( ( #213 ) ) GLOBAL_UNIT_ASSIGNED_CONTEXT ( ( #145, #203, #131 ) ) REPRESENTATION_CONTEXT ( 'NONE', 'WORKASPACE' ) );
#27 = FACE_OUTER_BOUND ( 'NONE', #77, .T. ) ;
#28 = CC_DESIGN_PERSON_AND_ORGANIZATION_ASSIGNMENT ( #32, #200, ( #54 ) ) ;
#29 = CARTESIAN_POINT ( 'NONE',  ( 1.396592535537252553E-15, 2.650000000000034994, 0.3999999999999997446 ) ) ;
#30 = COORDINATED_UNIVERSAL_TIME_OFFSET ( 1, 0, .AHEAD. ) ;
#31 = PERSON_AND_ORGANIZATION ( #239, #135 ) ;
#32 = PERSON_AND_ORGANIZATION ( #239, #135 ) ;
#33 = AXIS2_PLACEMENT_3D ( 'NONE', #208, #49, #235 ) ;
#34 = CC_DESIGN_APPROVAL ( #36, ( #222 ) ) ;
#35 = ORIENTED_EDGE ( 'NONE', *, *, #189, .T. ) ;
#36 = APPROVAL ( #226, 'UNSPECIFIED' ) ;
#37 = EDGE_CURVE ( 'NONE', #110, #110, #123, .T. ) ;
#38 = ORIENTED_EDGE ( 'NONE', *, *, #230, .T. ) ;
#39 = DATE_TIME_ROLE ( 'classification_date' ) ;
#40 = EDGE_LOOP ( 'NONE', ( #211 ) ) ;
#41 = ADVANCED_FACE ( 'NONE', ( #136, #24 ), #70, .T. ) ;
#42 = EDGE_LOOP ( 'NONE', ( #38 ) ) ;
#43 = DIRECTION ( 'NONE',  ( 4.275831445896958607E-31, 1.000000000000000000, 1.224646799147353207E-16 ) ) ;
#44 = PLANE ( 'NONE',  #174 ) ;
#45 = AXIS2_PLACEMENT_3D ( 'NONE', #21, #122, #232 ) ;
#46 = CARTESIAN_POINT ( 'NONE',  ( 2.793185071074506684E-13, 1.199807826129472128E-32, 80.00000000000000000 ) ) ;
#47 = ADVANCED_FACE ( 'NONE', ( #8 ), #44, .T. ) ;
#48 = DIRECTION ( 'NONE',  ( 0.0000000000000000000, 1.000000000000000000, 0.0000000000000000000 ) ) ;
#49 = DIRECTION ( 'NONE',  ( -3.491481338843133355E-15, 1.224646799147353207E-16, -1.000000000000000000 ) ) ;
#50 = CC_DESIGN_APPROVAL ( #130, ( #11 ) ) ;
#51 = COORDINATED_UNIVERSAL_TIME_OFFSET ( 1, 0, .AHEAD. ) ;
#52 = PERSON_AND_ORGANIZATION ( #239, #135 ) ;
#53 = CC_DESIGN_PERSON_AND_ORGANIZATION_ASSIGNMENT ( #183, #143, ( #11 ) ) ;
#54 = PRODUCT ( '321756', '321756', '', ( #223 ) ) ;
#55 = VERTEX_POINT ( 'NONE', #168 ) ;
#56 = PERSON_AND_ORGANIZATION ( #239, #135 ) ;
#57 = EDGE_CURVE ( 'NONE', #106, #106, #204, .T. ) ;
#58 = AXIS2_PLACEMENT_3D ( 'NONE', #219, #118, #212 ) ;
#59 = AXIS2_PLACEMENT_3D ( 'NONE', #15, #109, #238 ) ;
#60 = COORDINATED_UNIVERSAL_TIME_OFFSET ( 1, 0, .AHEAD. ) ;
#61 = EDGE_LOOP ( 'NONE', ( #243 ) ) ;
#62 = CALENDAR_DATE ( 2021, 2, 12 ) ;
#63 = EDGE_LOOP ( 'NONE', ( #151 ) ) ;
#64 = EDGE_LOOP ( 'NONE', ( #172 ) ) ;
#65 = MANIFOLD_SOLID_BREP ( 'Corps-Déplacer/Copier1[2]', #184 ) ;
#66 = ORIENTED_EDGE ( 'NONE', *, *, #115, .F. ) ;
#67 = PRODUCT_RELATED_PRODUCT_CATEGORY ( 'detail', '', ( #54 ) ) ;
#68 = DIRECTION ( 'NONE',  ( 0.0000000000000000000, 1.000000000000000000, 0.0000000000000000000 ) ) ;
#69 = PLANE ( 'NONE',  #108 ) ;
#70 = CYLINDRICAL_SURFACE ( 'NONE', #73, 2.650000000000034994 ) ;
#71 = DIRECTION ( 'NONE',  ( 4.275831445896958607E-31, 1.000000000000000000, 1.224646799147353207E-16 ) ) ;
#72 = DIRECTION ( 'NONE',  ( 0.0000000000000000000, 1.000000000000000000, 0.0000000000000000000 ) ) ;
#73 = AXIS2_PLACEMENT_3D ( 'NONE', #100, #177, #176 ) ;
#74 = DIRECTION ( 'NONE',  ( 1.000000000000000000, 0.0000000000000000000, 0.0000000000000000000 ) ) ;
#75 = DATE_AND_TIME ( #14, #221 ) ;
#76 = APPROVAL_ROLE ( '' ) ;
#77 = EDGE_LOOP ( 'NONE', ( #169 ) ) ;
#78 = CC_DESIGN_PERSON_AND_ORGANIZATION_ASSIGNMENT ( #186, #210, ( #222 ) ) ;
#79 = APPLICATION_CONTEXT ( 'configuration controlled 3d designs of mechanical parts and assemblies' ) ;
#80 = FACE_OUTER_BOUND ( 'NONE', #190, .T. ) ;
#81 = CC_DESIGN_DATE_AND_TIME_ASSIGNMENT ( #132, #39, ( #222 ) ) ;
#82 = PLANE ( 'NONE',  #45 ) ;
#83 = CARTESIAN_POINT ( 'NONE',  ( 4.189777606611760026E-14, -1.469576158976823947E-15, 12.00000000000000000 ) ) ;
#84 = CARTESIAN_POINT ( 'NONE',  ( 2.779219145719134403E-13, -9.748188521212932624E-15, 79.60000000000000853 ) ) ;
#85 = DIRECTION ( 'NONE',  ( -3.491481338843133355E-15, 1.224646799147353207E-16, -1.000000000000000000 ) ) ;
#86 = CALENDAR_DATE ( 2021, 2, 12 ) ;
#87 = APPROVAL_PERSON_ORGANIZATION ( #52, #130, #166 ) ;
#88 = VERTEX_POINT ( 'NONE', #107 ) ;
#89 = EDGE_CURVE ( 'NONE', #124, #124, #12, .T. ) ;
#90 = APPROVAL_DATE_TIME ( #129, #130 ) ;
#91 = DATE_AND_TIME ( #16, #112 ) ;
#92 = CONICAL_SURFACE ( 'NONE', #164, 2.650000000000034994, 0.5235987755982999259 ) ;
#93 = COORDINATED_UNIVERSAL_TIME_OFFSET ( 1, 0, .AHEAD. ) ;
#94 = EDGE_LOOP ( 'NONE', ( #35 ) ) ;
#95 = ADVANCED_FACE ( 'NONE', ( #80 ), #82, .F. ) ;
#96 = LOCAL_TIME ( 13, 57, 22.00000000000000000, #60 ) ;
#97 = ORIENTED_EDGE ( 'NONE', *, *, #20, .T. ) ;
#98 = PERSON_AND_ORGANIZATION_ROLE ( 'creator' ) ;
#99 = CC_DESIGN_SECURITY_CLASSIFICATION ( #222, ( #13 ) ) ;
#100 = CARTESIAN_POINT ( 'NONE',  ( 0.0000000000000000000, 0.0000000000000000000, 0.0000000000000000000 ) ) ;
#101 = CARTESIAN_POINT ( 'NONE',  ( -9.620620753268300060E-31, 3.374459510989229977E-32, -2.755455298081585700E-16 ) ) ;
#102 = DIRECTION ( 'NONE',  ( -4.275831445896958607E-31, -1.000000000000000000, -1.224646799147353207E-16 ) ) ;
#103 = DIRECTION ( 'NONE',  ( -3.491481338843133355E-15, 1.224646799147353207E-16, -1.000000000000000000 ) ) ;
#104 = AXIS2_PLACEMENT_3D ( 'NONE', #215, #23, #119 ) ;
#105 = DIRECTION ( 'NONE',  ( 0.0000000000000000000, 1.000000000000000000, 0.0000000000000000000 ) ) ;
#106 = VERTEX_POINT ( 'NONE', #182 ) ;
#107 = CARTESIAN_POINT ( 'NONE',  ( 0.0000000000000000000, 2.250000000000033751, 0.0000000000000000000 ) ) ;
#108 = AXIS2_PLACEMENT_3D ( 'NONE', #46, #198, #71 ) ;
#109 = DIRECTION ( 'NONE',  ( -3.491481338843133355E-15, 1.224646799147353207E-16, -1.000000000000000000 ) ) ;
#110 = VERTEX_POINT ( 'NONE', #29 ) ;
#111 = APPLICATION_PROTOCOL_DEFINITION ( 'international standard', 'config_control_design', 1994, #79 ) ;
#112 = LOCAL_TIME ( 13, 57, 22.00000000000000000, #30 ) ;
#113 = ORIENTED_EDGE ( 'NONE', *, *, #37, .F. ) ;
#114 = EDGE_LOOP ( 'NONE', ( #2 ) ) ;
#115 = EDGE_CURVE ( 'NONE', #242, #242, #180, .T. ) ;
#116 = ADVANCED_FACE ( 'NONE', ( #193 ), #69, .F. ) ;
#117 = DIRECTION ( 'NONE',  ( -3.491481338843133355E-15, 1.224646799147353207E-16, -1.000000000000000000 ) ) ;
#118 = DIRECTION ( 'NONE',  ( -3.491481338843133355E-15, 1.224646799147353207E-16, -1.000000000000000000 ) ) ;
#119 = DIRECTION ( 'NONE',  ( -4.275831445896957731E-31, -1.000000000000000000, -1.224646799147352961E-16 ) ) ;
#120 = ADVANCED_FACE ( 'NONE', ( #121, #234 ), #195, .T. ) ;
#121 = FACE_OUTER_BOUND ( 'NONE', #63, .T. ) ;
#122 = DIRECTION ( 'NONE',  ( 3.491481338843133355E-15, -1.224646799147353207E-16, 1.000000000000000000 ) ) ;
#123 = CIRCLE ( 'NONE', #133, 2.650000000000034994 ) ;
#124 = VERTEX_POINT ( 'NONE', #146 ) ;
#125 = CC_DESIGN_PERSON_AND_ORGANIZATION_ASSIGNMENT ( #153, #173, ( #13 ) ) ;
#126 = APPLICATION_PROTOCOL_DEFINITION ( 'international standard', 'config_control_design', 1994, #228 ) ;
#127 = APPROVAL_STATUS ( 'not_yet_approved' ) ;
#128 = CIRCLE ( 'NONE', #59, 1.999999999999992228 ) ;
#129 = DATE_AND_TIME ( #86, #197 ) ;
#130 = APPROVAL ( #240, 'UNSPECIFIED' ) ;
#131 =( NAMED_UNIT ( * ) SI_UNIT ( $, .STERADIAN. ) SOLID_ANGLE_UNIT ( ) );
#132 = DATE_AND_TIME ( #188, #227 ) ;
#133 = AXIS2_PLACEMENT_3D ( 'NONE', #194, #10, #191 ) ;
#134 = DATE_AND_TIME ( #62, #96 ) ;
#135 = ORGANIZATION ( 'UNSPECIFIED', 'UNSPECIFIED', '' ) ;
#136 = FACE_OUTER_BOUND ( 'NONE', #157, .T. ) ;
#137 = FACE_BOUND ( 'NONE', #155, .T. ) ;
#138 = MANIFOLD_SOLID_BREP ( 'Corps-Déplacer/Copier1[1]', #4 ) ;
#139 = DIRECTION ( 'NONE',  ( -3.491481338843133355E-15, 1.224646799147353207E-16, -1.000000000000000000 ) ) ;
#140 = DIRECTION ( 'NONE',  ( 4.275831445896957731E-31, 1.000000000000000000, 1.224646799147352961E-16 ) ) ;
#141 = CARTESIAN_POINT ( 'NONE',  ( 4.189777606611760026E-14, 2.650000000000033662, 12.00000000000000000 ) ) ;
#142 = APPROVAL_PERSON_ORGANIZATION ( #56, #36, #76 ) ;
#143 = PERSON_AND_ORGANIZATION_ROLE ( 'creator' ) ;
#144 = ADVANCED_FACE ( 'NONE', ( #25, #137 ), #192, .T. ) ;
#145 =( LENGTH_UNIT ( ) NAMED_UNIT ( * ) SI_UNIT ( .MILLI., .METRE. ) );
#146 = CARTESIAN_POINT ( 'NONE',  ( 2.779219145719134403E-13, 1.999999999999991340, 79.60000000000000853 ) ) ;
#147 = AXIS2_PLACEMENT_3D ( 'NONE', #178, #175, #6 ) ;
#148 = PRODUCT_DEFINITION_SHAPE ( 'NONE', 'NONE',  #11 ) ;
#149 = CARTESIAN_POINT ( 'NONE',  ( 0.0000000000000000000, 0.0000000000000000000, 0.0000000000000000000 ) ) ;
#150 = APPROVAL_DATE_TIME ( #134, #36 ) ;
#151 = ORIENTED_EDGE ( 'NONE', *, *, #230, .F. ) ;
#152 = AXIS2_PLACEMENT_3D ( 'NONE', #84, #117, #105 ) ;
#153 = PERSON_AND_ORGANIZATION ( #239, #135 ) ;
#154 = PERSON_AND_ORGANIZATION ( #239, #135 ) ;
#155 = EDGE_LOOP ( 'NONE', ( #229 ) ) ;
#156 = AXIS2_PLACEMENT_3D ( 'NONE', #149, #199, #74 ) ;
#157 = EDGE_LOOP ( 'NONE', ( #206 ) ) ;
#158 = CARTESIAN_POINT ( 'NONE',  ( 2.793185071074506684E-13, -9.797174393178826052E-15, 80.00000000000000000 ) ) ;
#159 = FACE_OUTER_BOUND ( 'NONE', #171, .T. ) ;
#160 = CONICAL_SURFACE ( 'NONE', #104, 2.250000000000033751, 0.7853981633974504994 ) ;
#161 = DIRECTION ( 'NONE',  ( -3.491481338843133355E-15, 1.224646799147353207E-16, -1.000000000000000000 ) ) ;
#162 = CARTESIAN_POINT ( 'NONE',  ( 4.189777606611760026E-14, 1.987181712026985963E-32, 12.00000000000000000 ) ) ;
#163 = FACE_OUTER_BOUND ( 'NONE', #40, .T. ) ;
#164 = AXIS2_PLACEMENT_3D ( 'NONE', #236, #9, #72 ) ;
#165 = VERTEX_POINT ( 'NONE', #181 ) ;
#166 = APPROVAL_ROLE ( '' ) ;
#167 = APPROVAL_DATE_TIME ( #91, #214 ) ;
#168 = CARTESIAN_POINT ( 'NONE',  ( 4.189777606611760026E-14, 2.650000000000033662, 12.00000000000000000 ) ) ;
#169 = ORIENTED_EDGE ( 'NONE', *, *, #37, .T. ) ;
#170 = CC_DESIGN_PERSON_AND_ORGANIZATION_ASSIGNMENT ( #154, #98, ( #13 ) ) ;
#171 = EDGE_LOOP ( 'NONE', ( #66 ) ) ;
#172 = ORIENTED_EDGE ( 'NONE', *, *, #57, .F. ) ;
#173 = PERSON_AND_ORGANIZATION_ROLE ( 'design_supplier' ) ;
#174 = AXIS2_PLACEMENT_3D ( 'NONE', #220, #139, #43 ) ;
#175 = DIRECTION ( 'NONE',  ( -3.491481338843133355E-15, 1.224646799147353207E-16, -1.000000000000000000 ) ) ;
#176 = DIRECTION ( 'NONE',  ( 4.275831445896959482E-31, 1.000000000000000000, 1.224646799147353454E-16 ) ) ;
#177 = DIRECTION ( 'NONE',  ( -3.491481338843133355E-15, 1.224646799147353207E-16, -1.000000000000000000 ) ) ;
#178 = CARTESIAN_POINT ( 'NONE',  ( 0.0000000000000000000, 0.0000000000000000000, 0.0000000000000000000 ) ) ;
#179 = FACE_BOUND ( 'NONE', #61, .T. ) ;
#180 = CIRCLE ( 'NONE', #216, 2.650000000000034994 ) ;
#181 = CARTESIAN_POINT ( 'NONE',  ( 4.582860106327854521E-14, 1.999999999999990452, 13.12583302491984227 ) ) ;
#182 = CARTESIAN_POINT ( 'NONE',  ( 2.793185071074506684E-13, 1.599999999999991207, 80.00000000000000000 ) ) ;
#183 = PERSON_AND_ORGANIZATION ( #239, #135 ) ;
#184 = CLOSED_SHELL ( 'NONE', ( #41, #225, #47, #187 ) ) ;
#185 = CC_DESIGN_DATE_AND_TIME_ASSIGNMENT ( #75, #17, ( #11 ) ) ;
#186 = PERSON_AND_ORGANIZATION ( #239, #135 ) ;
#187 = ADVANCED_FACE ( 'NONE', ( #27, #179 ), #160, .T. ) ;
#188 = CALENDAR_DATE ( 2021, 2, 12 ) ;
#189 = EDGE_CURVE ( 'NONE', #88, #88, #231, .T. ) ;
#190 = EDGE_LOOP ( 'NONE', ( #97 ) ) ;
#191 = DIRECTION ( 'NONE',  ( 4.360596100499344227E-31, 1.000000000000000000, 1.227398685832630287E-16 ) ) ;
#192 = CONICAL_SURFACE ( 'NONE', #217, 1.600000000000000977, 0.7853981633974512766 ) ;
#193 = FACE_OUTER_BOUND ( 'NONE', #64, .T. ) ;
#194 = CARTESIAN_POINT ( 'NONE',  ( 1.396592535537251370E-15, -4.898587196589405680E-17, 0.3999999999999994116 ) ) ;
#195 = CYLINDRICAL_SURFACE ( 'NONE', #147, 1.999999999999996669 ) ;
#196 = CIRCLE ( 'NONE', #33, 2.650000000000034994 ) ;
#197 = LOCAL_TIME ( 13, 57, 22.00000000000000000, #93 ) ;
#198 = DIRECTION ( 'NONE',  ( -3.491481338843133355E-15, 1.224646799147353207E-16, -1.000000000000000000 ) ) ;
#199 = DIRECTION ( 'NONE',  ( 0.0000000000000000000, 0.0000000000000000000, 1.000000000000000000 ) ) ;
#200 = PERSON_AND_ORGANIZATION_ROLE ( 'design_owner' ) ;
#201 = APPROVAL_ROLE ( '' ) ;
#202 = ADVANCED_FACE ( 'NONE', ( #218, #163 ), #92, .T. ) ;
#203 =( NAMED_UNIT ( * ) PLANE_ANGLE_UNIT ( ) SI_UNIT ( $, .RADIAN. ) );
#204 = CIRCLE ( 'NONE', #58, 1.600000000000000977 ) ;
#205 = SHAPE_DEFINITION_REPRESENTATION ( #148, #22 ) ;
#206 = ORIENTED_EDGE ( 'NONE', *, *, #115, .T. ) ;
#207 = DESIGN_CONTEXT ( 'detailed design', #79, 'design' ) ;
#208 = CARTESIAN_POINT ( 'NONE',  ( 4.189777606611760026E-14, -1.469576158976823947E-15, 12.00000000000000000 ) ) ;
#209 = ORIENTED_EDGE ( 'NONE', *, *, #89, .F. ) ;
#210 = PERSON_AND_ORGANIZATION_ROLE ( 'classification_officer' ) ;
#211 = ORIENTED_EDGE ( 'NONE', *, *, #20, .F. ) ;
#212 = DIRECTION ( 'NONE',  ( 0.0000000000000000000, 1.000000000000000000, 0.0000000000000000000 ) ) ;
#213 = UNCERTAINTY_MEASURE_WITH_UNIT (LENGTH_MEASURE( 1.000000000000000082E-05 ), #145, 'distance_accuracy_value', 'NONE');
#214 = APPROVAL ( #127, 'UNSPECIFIED' ) ;
#215 = CARTESIAN_POINT ( 'NONE',  ( -9.620620753268300060E-31, 3.374459510989229977E-32, -2.755455298081585700E-16 ) ) ;
#216 = AXIS2_PLACEMENT_3D ( 'NONE', #83, #161, #48 ) ;
#217 = AXIS2_PLACEMENT_3D ( 'NONE', #158, #103, #68 ) ;
#218 = FACE_BOUND ( 'NONE', #42, .T. ) ;
#219 = CARTESIAN_POINT ( 'NONE',  ( 2.793185071074506684E-13, -9.797174393178826052E-15, 80.00000000000000000 ) ) ;
#220 = CARTESIAN_POINT ( 'NONE',  ( -4.810310376634150030E-31, 1.687229755494614988E-32, -1.377727649040792850E-16 ) ) ;
#221 = LOCAL_TIME ( 13, 57, 22.00000000000000000, #51 ) ;
#222 = SECURITY_CLASSIFICATION ( '', '', #224 ) ;
#223 = MECHANICAL_CONTEXT ( 'NONE', #228, 'mechanical' ) ;
#224 = SECURITY_CLASSIFICATION_LEVEL ( 'unclassified' ) ;
#225 = ADVANCED_FACE ( 'NONE', ( #159 ), #7, .T. ) ;
#226 = APPROVAL_STATUS ( 'not_yet_approved' ) ;
#227 = LOCAL_TIME ( 13, 57, 22.00000000000000000, #1 ) ;
#228 = APPLICATION_CONTEXT ( 'configuration controlled 3d designs of mechanical parts and assemblies' ) ;
#229 = ORIENTED_EDGE ( 'NONE', *, *, #57, .T. ) ;
#230 = EDGE_CURVE ( 'NONE', #165, #165, #128, .T. ) ;
#231 = CIRCLE ( 'NONE', #241, 2.250000000000033751 ) ;
#232 = DIRECTION ( 'NONE',  ( -4.275831445896958607E-31, -1.000000000000000000, -1.224646799147353207E-16 ) ) ;
#233 = DIRECTION ( 'NONE',  ( 3.491481338843133355E-15, -1.224646799147353207E-16, 1.000000000000000000 ) ) ;
#234 = FACE_OUTER_BOUND ( 'NONE', #114, .T. ) ;
#235 = DIRECTION ( 'NONE',  ( 0.0000000000000000000, 1.000000000000000000, 0.0000000000000000000 ) ) ;
#236 = CARTESIAN_POINT ( 'NONE',  ( 4.189777606611760026E-14, -1.469576158976823947E-15, 12.00000000000000000 ) ) ;
#237 = AXIS2_PLACEMENT_3D ( 'NONE', #162, #233, #102 ) ;
#238 = DIRECTION ( 'NONE',  ( 0.0000000000000000000, 1.000000000000000000, 0.0000000000000000000 ) ) ;
#239 = PERSON ( 'UNSPECIFIED', 'UNSPECIFIED', 'UNSPECIFIED', ('UNSPECIFIED'), ('UNSPECIFIED'), ('UNSPECIFIED') ) ;
#240 = APPROVAL_STATUS ( 'not_yet_approved' ) ;
#241 = AXIS2_PLACEMENT_3D ( 'NONE', #101, #85, #140 ) ;
#242 = VERTEX_POINT ( 'NONE', #141 ) ;
#243 = ORIENTED_EDGE ( 'NONE', *, *, #189, .F. ) ;
ENDSEC;
END-ISO-10303-21;
