ISO-10303-21;
HEADER;
FILE_DESCRIPTION (( 'STEP AP203' ),
    '1' );
FILE_NAME ('321751.step',
    '2021-12-02T12:57:18',
    ( '' ),
    ( '' ),
    'SwSTEP 2.0',
    'SolidWorks 2019',
    '' );
FILE_SCHEMA (( 'CONFIG_CONTROL_DESIGN' ));
ENDSEC;

DATA;
#1 = VERTEX_POINT ( 'NONE', #149 ) ;
#2 = ADVANCED_FACE ( 'NONE', ( #211 ), #50, .F. ) ;
#3 = AXIS2_PLACEMENT_3D ( 'NONE', #107, #147, #15 ) ;
#4 =( LENGTH_UNIT ( ) NAMED_UNIT ( * ) SI_UNIT ( .MILLI., .METRE. ) );
#5 = APPLICATION_CONTEXT ( 'configuration controlled 3d designs of mechanical parts and assemblies' ) ;
#6 = EDGE_LOOP ( 'NONE', ( #67 ) ) ;
#7 =( GEOMETRIC_REPRESENTATION_CONTEXT ( 3 ) GLOBAL_UNCERTAINTY_ASSIGNED_CONTEXT ( ( #111 ) ) GLOBAL_UNIT_ASSIGNED_CONTEXT ( ( #4, #201, #226 ) ) REPRESENTATION_CONTEXT ( 'NONE', 'WORKASPACE' ) );
#8 = PERSON_AND_ORGANIZATION ( #234, #135 ) ;
#9 = EDGE_LOOP ( 'NONE', ( #14 ) ) ;
#10 = DATE_AND_TIME ( #31, #38 ) ;
#11 = PERSON_AND_ORGANIZATION ( #234, #135 ) ;
#12 = EDGE_LOOP ( 'NONE', ( #104 ) ) ;
#13 = CIRCLE ( 'NONE', #227, 2.625000000000035083 ) ;
#14 = ORIENTED_EDGE ( 'NONE', *, *, #233, .F. ) ;
#15 = DIRECTION ( 'NONE',  ( -4.275831445896958607E-31, -1.000000000000000000, -1.224646799147353207E-16 ) ) ;
#16 = DIRECTION ( 'NONE',  ( 4.275831445896957731E-31, 1.000000000000000000, 1.224646799147353207E-16 ) ) ;
#17 = ADVANCED_FACE ( 'NONE', ( #184, #128 ), #183, .T. ) ;
#18 = AXIS2_PLACEMENT_3D ( 'NONE', #215, #219, #60 ) ;
#19 = DIRECTION ( 'NONE',  ( -3.491481338843133355E-15, 1.224646799147353207E-16, -1.000000000000000000 ) ) ;
#20 = DIRECTION ( 'NONE',  ( -3.491481338843133355E-15, 1.224646799147353207E-16, -1.000000000000000000 ) ) ;
#21 = APPROVAL_DATE_TIME ( #223, #207 ) ;
#22 = CONICAL_SURFACE ( 'NONE', #122, 2.625000000000035083, 0.5235987755983002589 ) ;
#23 = VERTEX_POINT ( 'NONE', #98 ) ;
#24 = ADVANCED_FACE ( 'NONE', ( #200, #146 ), #237, .T. ) ;
#25 = APPLICATION_PROTOCOL_DEFINITION ( 'international standard', 'config_control_design', 1994, #5 ) ;
#26 = APPROVAL_DATE_TIME ( #188, #59 ) ;
#27 = AXIS2_PLACEMENT_3D ( 'NONE', #92, #40, #124 ) ;
#28 = CALENDAR_DATE ( 2021, 2, 12 ) ;
#29 = ORIENTED_EDGE ( 'NONE', *, *, #137, .F. ) ;
#30 = DESIGN_CONTEXT ( 'detailed design', #47, 'design' ) ;
#31 = CALENDAR_DATE ( 2021, 2, 12 ) ;
#32 = CC_DESIGN_PERSON_AND_ORGANIZATION_ASSIGNMENT ( #8, #102, ( #85 ) ) ;
#33 = ORIENTED_EDGE ( 'NONE', *, *, #69, .F. ) ;
#34 = EDGE_LOOP ( 'NONE', ( #191 ) ) ;
#35 = DIRECTION ( 'NONE',  ( 4.275831445896958607E-31, 1.000000000000000000, 1.224646799147353207E-16 ) ) ;
#36 = DIRECTION ( 'NONE',  ( -3.491481338843133355E-15, 1.224646799147353207E-16, -1.000000000000000000 ) ) ;
#37 = FACE_BOUND ( 'NONE', #136, .T. ) ;
#38 = LOCAL_TIME ( 13, 57, 18.00000000000000000, #157 ) ;
#39 = CARTESIAN_POINT ( 'NONE',  ( -9.513724967120876489E-31, 3.336965516422683810E-32, -2.724839128102902307E-16 ) ) ;
#40 = DIRECTION ( 'NONE',  ( -3.491481338843133355E-15, 1.224646799147353207E-16, -1.000000000000000000 ) ) ;
#41 = CARTESIAN_POINT ( 'NONE',  ( 2.793185071074506684E-13, 1.599999999999991207, 80.00000000000000000 ) ) ;
#42 = LOCAL_TIME ( 13, 57, 18.00000000000000000, #222 ) ;
#43 = ADVANCED_FACE ( 'NONE', ( #182 ), #218, .T. ) ;
#44 = PERSON_AND_ORGANIZATION ( #234, #135 ) ;
#45 = CC_DESIGN_PERSON_AND_ORGANIZATION_ASSIGNMENT ( #177, #229, ( #77 ) ) ;
#46 = VERTEX_POINT ( 'NONE', #41 ) ;
#47 = APPLICATION_CONTEXT ( 'configuration controlled 3d designs of mechanical parts and assemblies' ) ;
#48 = PERSON_AND_ORGANIZATION_ROLE ( 'design_supplier' ) ;
#49 = EDGE_LOOP ( 'NONE', ( #134 ) ) ;
#50 = PLANE ( 'NONE',  #204 ) ;
#51 = APPROVAL_PERSON_ORGANIZATION ( #64, #207, #132 ) ;
#52 = CC_DESIGN_PERSON_AND_ORGANIZATION_ASSIGNMENT ( #232, #48, ( #77 ) ) ;
#53 = EDGE_LOOP ( 'NONE', ( #138 ) ) ;
#54 = CARTESIAN_POINT ( 'NONE',  ( 4.189777606611760026E-14, -1.469576158976823947E-15, 12.00000000000000000 ) ) ;
#55 = CIRCLE ( 'NONE', #220, 1.600000000000000977 ) ;
#56 = DIRECTION ( 'NONE',  ( 0.0000000000000000000, 1.000000000000000000, 0.0000000000000000000 ) ) ;
#57 = CYLINDRICAL_SURFACE ( 'NONE', #90, 1.999999999999996669 ) ;
#58 = DIRECTION ( 'NONE',  ( 4.402125587170766253E-31, 1.000000000000000000, 1.239088197126274300E-16 ) ) ;
#59 = APPROVAL ( #114, 'UNSPECIFIED' ) ;
#60 = DIRECTION ( 'NONE',  ( -4.275831445896958607E-31, -1.000000000000000000, -1.224646799147353207E-16 ) ) ;
#61 = EDGE_CURVE ( 'NONE', #171, #171, #13, .T. ) ;
#62 = PERSON_AND_ORGANIZATION ( #234, #135 ) ;
#63 = APPROVAL_PERSON_ORGANIZATION ( #44, #59, #131 ) ;
#64 = PERSON_AND_ORGANIZATION ( #234, #135 ) ;
#65 = CC_DESIGN_PERSON_AND_ORGANIZATION_ASSIGNMENT ( #62, #97, ( #70 ) ) ;
#66 = DIRECTION ( 'NONE',  ( 3.491481338843133355E-15, -1.224646799147353207E-16, 1.000000000000000000 ) ) ;
#67 = ORIENTED_EDGE ( 'NONE', *, *, #105, .F. ) ;
#68 = AXIS2_PLACEMENT_3D ( 'NONE', #54, #145, #197 ) ;
#69 = EDGE_CURVE ( 'NONE', #82, #82, #165, .T. ) ;
#70 = PRODUCT_DEFINITION ( 'UNKNOWN', '', #77, #30 ) ;
#71 = ORIENTED_EDGE ( 'NONE', *, *, #129, .T. ) ;
#72 = LOCAL_TIME ( 13, 57, 18.00000000000000000, #87 ) ;
#73 = EDGE_LOOP ( 'NONE', ( #230 ) ) ;
#74 = DIRECTION ( 'NONE',  ( -3.491481338843133355E-15, 1.224646799147353207E-16, -1.000000000000000000 ) ) ;
#75 = ADVANCED_BREP_SHAPE_REPRESENTATION ( '321751', ( #208, #127, #143 ), #7 ) ;
#76 = CARTESIAN_POINT ( 'NONE',  ( 2.793185071074506684E-13, -9.797174393178826052E-15, 80.00000000000000000 ) ) ;
#77 = PRODUCT_DEFINITION_FORMATION_WITH_SPECIFIED_SOURCE ( 'ANY', '', #119, .NOT_KNOWN. ) ;
#78 = CARTESIAN_POINT ( 'NONE',  ( 4.189777606611760026E-14, -1.469576158976823947E-15, 12.00000000000000000 ) ) ;
#79 = DIRECTION ( 'NONE',  ( -3.491481338843133355E-15, 1.224646799147353207E-16, -1.000000000000000000 ) ) ;
#80 = CC_DESIGN_PERSON_AND_ORGANIZATION_ASSIGNMENT ( #186, #225, ( #119 ) ) ;
#81 = PLANE ( 'NONE',  #3 ) ;
#82 = VERTEX_POINT ( 'NONE', #86 ) ;
#83 = EDGE_CURVE ( 'NONE', #1, #1, #150, .T. ) ;
#84 = APPROVAL_STATUS ( 'not_yet_approved' ) ;
#85 = SECURITY_CLASSIFICATION ( '', '', #175 ) ;
#86 = CARTESIAN_POINT ( 'NONE',  ( 4.567741548646467631E-14, 1.999999999999990452, 13.08253175473062058 ) ) ;
#87 = COORDINATED_UNIVERSAL_TIME_OFFSET ( 1, 0, .AHEAD. ) ;
#88 = ORIENTED_EDGE ( 'NONE', *, *, #105, .T. ) ;
#89 = ORIENTED_EDGE ( 'NONE', *, *, #233, .T. ) ;
#90 = AXIS2_PLACEMENT_3D ( 'NONE', #159, #121, #106 ) ;
#91 = CARTESIAN_POINT ( 'NONE',  ( -4.756862483560438244E-31, 1.668482758211341905E-32, -1.362419564051451154E-16 ) ) ;
#92 = CARTESIAN_POINT ( 'NONE',  ( 4.567741548646467631E-14, -1.602148063817445995E-15, 13.08253175473062058 ) ) ;
#93 = DIRECTION ( 'NONE',  ( -3.491481338843133355E-15, 1.224646799147353207E-16, -1.000000000000000000 ) ) ;
#94 = CARTESIAN_POINT ( 'NONE',  ( 2.779219145719134403E-13, -9.748188521212932624E-15, 79.60000000000000853 ) ) ;
#95 = CARTESIAN_POINT ( 'NONE',  ( 1.396592535537252948E-15, -4.898587196589411226E-17, 0.3999999999999998557 ) ) ;
#96 = CIRCLE ( 'NONE', #153, 2.000000000000000888 ) ;
#97 = PERSON_AND_ORGANIZATION_ROLE ( 'creator' ) ;
#98 = CARTESIAN_POINT ( 'NONE',  ( 1.396592535537254131E-15, 2.625000000000035083, 0.4000000000000001887 ) ) ;
#99 = COORDINATED_UNIVERSAL_TIME_OFFSET ( 1, 0, .AHEAD. ) ;
#100 = AXIS2_PLACEMENT_3D ( 'NONE', #95, #139, #58 ) ;
#101 = DIRECTION ( 'NONE',  ( -4.275831445896957731E-31, -1.000000000000000000, -1.224646799147353207E-16 ) ) ;
#102 = PERSON_AND_ORGANIZATION_ROLE ( 'classification_officer' ) ;
#103 = AXIS2_PLACEMENT_3D ( 'NONE', #239, #36, #108 ) ;
#104 = ORIENTED_EDGE ( 'NONE', *, *, #69, .T. ) ;
#105 = EDGE_CURVE ( 'NONE', #23, #23, #161, .T. ) ;
#106 = DIRECTION ( 'NONE',  ( 4.275831445896958607E-31, 1.000000000000000000, 1.224646799147353207E-16 ) ) ;
#107 = CARTESIAN_POINT ( 'NONE',  ( 4.189777606611760026E-14, 1.968434714743712606E-32, 12.00000000000000000 ) ) ;
#108 = DIRECTION ( 'NONE',  ( 4.275831445896959482E-31, 1.000000000000000000, 1.224646799147353454E-16 ) ) ;
#109 = APPROVAL_PERSON_ORGANIZATION ( #11, #120, #172 ) ;
#110 = FACE_OUTER_BOUND ( 'NONE', #173, .T. ) ;
#111 = UNCERTAINTY_MEASURE_WITH_UNIT (LENGTH_MEASURE( 1.000000000000000082E-05 ), #4, 'distance_accuracy_value', 'NONE');
#112 = DIRECTION ( 'NONE',  ( 0.0000000000000000000, 1.000000000000000000, 0.0000000000000000000 ) ) ;
#113 = PRODUCT_DEFINITION_SHAPE ( 'NONE', 'NONE',  #70 ) ;
#114 = APPROVAL_STATUS ( 'not_yet_approved' ) ;
#115 = ADVANCED_FACE ( 'NONE', ( #240, #110 ), #22, .T. ) ;
#116 = CALENDAR_DATE ( 2021, 2, 12 ) ;
#117 = EDGE_LOOP ( 'NONE', ( #210 ) ) ;
#118 = CC_DESIGN_APPROVAL ( #59, ( #77 ) ) ;
#119 = PRODUCT ( '321751', '321751', '', ( #209 ) ) ;
#120 = APPROVAL ( #154, 'UNSPECIFIED' ) ;
#121 = DIRECTION ( 'NONE',  ( -3.491481338843133355E-15, 1.224646799147353207E-16, -1.000000000000000000 ) ) ;
#122 = AXIS2_PLACEMENT_3D ( 'NONE', #78, #93, #163 ) ;
#123 = FACE_OUTER_BOUND ( 'NONE', #214, .T. ) ;
#124 = DIRECTION ( 'NONE',  ( 0.0000000000000000000, 1.000000000000000000, 0.0000000000000000000 ) ) ;
#125 = DIRECTION ( 'NONE',  ( -3.491481338843133355E-15, 1.224646799147353207E-16, -1.000000000000000000 ) ) ;
#126 = AXIS2_PLACEMENT_3D ( 'NONE', #91, #20, #180 ) ;
#127 = MANIFOLD_SOLID_BREP ( 'Corps-Déplacer/Copier1[2]', #178 ) ;
#128 = FACE_BOUND ( 'NONE', #156, .T. ) ;
#129 = EDGE_CURVE ( 'NONE', #242, #242, #96, .T. ) ;
#130 = CALENDAR_DATE ( 2021, 2, 12 ) ;
#131 = APPROVAL_ROLE ( '' ) ;
#132 = APPROVAL_ROLE ( '' ) ;
#133 = DIRECTION ( 'NONE',  ( 1.000000000000000000, 0.0000000000000000000, 0.0000000000000000000 ) ) ;
#134 = ORIENTED_EDGE ( 'NONE', *, *, #137, .T. ) ;
#135 = ORGANIZATION ( 'UNSPECIFIED', 'UNSPECIFIED', '' ) ;
#136 = EDGE_LOOP ( 'NONE', ( #29 ) ) ;
#137 = EDGE_CURVE ( 'NONE', #243, #243, #236, .T. ) ;
#138 = ORIENTED_EDGE ( 'NONE', *, *, #61, .T. ) ;
#139 = DIRECTION ( 'NONE',  ( -3.491481338843133355E-15, 1.224646799147353207E-16, -1.000000000000000000 ) ) ;
#140 = ADVANCED_FACE ( 'NONE', ( #198 ), #81, .F. ) ;
#141 = CARTESIAN_POINT ( 'NONE',  ( 2.793185071074506684E-13, -9.797174393178826052E-15, 80.00000000000000000 ) ) ;
#142 = CONICAL_SURFACE ( 'NONE', #170, 2.225000000000033840, 0.7853981633974500554 ) ;
#143 = AXIS2_PLACEMENT_3D ( 'NONE', #187, #205, #133 ) ;
#144 = CC_DESIGN_DATE_AND_TIME_ASSIGNMENT ( #10, #194, ( #85 ) ) ;
#145 = DIRECTION ( 'NONE',  ( -3.491481338843133355E-15, 1.224646799147353207E-16, -1.000000000000000000 ) ) ;
#146 = FACE_OUTER_BOUND ( 'NONE', #6, .T. ) ;
#147 = DIRECTION ( 'NONE',  ( 3.491481338843133355E-15, -1.224646799147353207E-16, 1.000000000000000000 ) ) ;
#148 = AXIS2_PLACEMENT_3D ( 'NONE', #39, #125, #16 ) ;
#149 = CARTESIAN_POINT ( 'NONE',  ( 4.189777606611760026E-14, 2.625000000000034195, 12.00000000000000000 ) ) ;
#150 = CIRCLE ( 'NONE', #68, 2.625000000000035083 ) ;
#151 = CARTESIAN_POINT ( 'NONE',  ( -9.513724967120876489E-31, 3.336965516422683810E-32, -2.724839128102902307E-16 ) ) ;
#152 = PRODUCT_RELATED_PRODUCT_CATEGORY ( 'detail', '', ( #119 ) ) ;
#153 = AXIS2_PLACEMENT_3D ( 'NONE', #94, #235, #112 ) ;
#154 = APPROVAL_STATUS ( 'not_yet_approved' ) ;
#155 = DATE_AND_TIME ( #28, #72 ) ;
#156 = EDGE_LOOP ( 'NONE', ( #89 ) ) ;
#157 = COORDINATED_UNIVERSAL_TIME_OFFSET ( 1, 0, .AHEAD. ) ;
#158 = CARTESIAN_POINT ( 'NONE',  ( 4.189777606611760026E-14, -1.469576158976823947E-15, 12.00000000000000000 ) ) ;
#159 = CARTESIAN_POINT ( 'NONE',  ( 0.0000000000000000000, 0.0000000000000000000, 0.0000000000000000000 ) ) ;
#160 = DIRECTION ( 'NONE',  ( 0.0000000000000000000, 1.000000000000000000, 0.0000000000000000000 ) ) ;
#161 = CIRCLE ( 'NONE', #100, 2.625000000000035083 ) ;
#162 = CARTESIAN_POINT ( 'NONE',  ( 2.793185071074506684E-13, 1.199807826129472128E-32, 80.00000000000000000 ) ) ;
#163 = DIRECTION ( 'NONE',  ( 0.0000000000000000000, 1.000000000000000000, 0.0000000000000000000 ) ) ;
#164 = DATE_AND_TIME ( #130, #174 ) ;
#165 = CIRCLE ( 'NONE', #27, 1.999999999999992228 ) ;
#166 = APPLICATION_PROTOCOL_DEFINITION ( 'international standard', 'config_control_design', 1994, #47 ) ;
#167 = ADVANCED_FACE ( 'NONE', ( #181 ), #196, .T. ) ;
#168 = CARTESIAN_POINT ( 'NONE',  ( 2.779219145719134403E-13, 1.999999999999991340, 79.60000000000000853 ) ) ;
#169 = COORDINATED_UNIVERSAL_TIME_OFFSET ( 1, 0, .AHEAD. ) ;
#170 = AXIS2_PLACEMENT_3D ( 'NONE', #151, #66, #101 ) ;
#171 = VERTEX_POINT ( 'NONE', #241 ) ;
#172 = APPROVAL_ROLE ( '' ) ;
#173 = EDGE_LOOP ( 'NONE', ( #179 ) ) ;
#174 = LOCAL_TIME ( 13, 57, 18.00000000000000000, #169 ) ;
#175 = SECURITY_CLASSIFICATION_LEVEL ( 'unclassified' ) ;
#176 = EDGE_LOOP ( 'NONE', ( #33 ) ) ;
#177 = PERSON_AND_ORGANIZATION ( #234, #135 ) ;
#178 = CLOSED_SHELL ( 'NONE', ( #24, #167, #43, #238 ) ) ;
#179 = ORIENTED_EDGE ( 'NONE', *, *, #61, .F. ) ;
#180 = DIRECTION ( 'NONE',  ( 4.275831445896958607E-31, 1.000000000000000000, 1.224646799147353207E-16 ) ) ;
#181 = FACE_OUTER_BOUND ( 'NONE', #34, .T. ) ;
#182 = FACE_OUTER_BOUND ( 'NONE', #49, .T. ) ;
#183 = CONICAL_SURFACE ( 'NONE', #212, 1.600000000000000977, 0.7853981633974512766 ) ;
#184 = FACE_OUTER_BOUND ( 'NONE', #73, .T. ) ;
#185 = FACE_OUTER_BOUND ( 'NONE', #176, .T. ) ;
#186 = PERSON_AND_ORGANIZATION ( #234, #135 ) ;
#187 = CARTESIAN_POINT ( 'NONE',  ( 0.0000000000000000000, 0.0000000000000000000, 0.0000000000000000000 ) ) ;
#188 = DATE_AND_TIME ( #116, #193 ) ;
#189 = CC_DESIGN_APPROVAL ( #207, ( #70 ) ) ;
#190 = EDGE_LOOP ( 'NONE', ( #71 ) ) ;
#191 = ORIENTED_EDGE ( 'NONE', *, *, #83, .F. ) ;
#192 = ADVANCED_FACE ( 'NONE', ( #185, #217 ), #57, .T. ) ;
#193 = LOCAL_TIME ( 13, 57, 18.00000000000000000, #99 ) ;
#194 = DATE_TIME_ROLE ( 'classification_date' ) ;
#195 = DIRECTION ( 'NONE',  ( 0.0000000000000000000, 1.000000000000000000, 0.0000000000000000000 ) ) ;
#196 = PLANE ( 'NONE',  #18 ) ;
#197 = DIRECTION ( 'NONE',  ( 0.0000000000000000000, 1.000000000000000000, 0.0000000000000000000 ) ) ;
#198 = FACE_OUTER_BOUND ( 'NONE', #53, .T. ) ;
#199 = CC_DESIGN_APPROVAL ( #120, ( #85 ) ) ;
#200 = FACE_OUTER_BOUND ( 'NONE', #117, .T. ) ;
#201 =( NAMED_UNIT ( * ) PLANE_ANGLE_UNIT ( ) SI_UNIT ( $, .RADIAN. ) );
#202 = DATE_TIME_ROLE ( 'creation_date' ) ;
#203 = CC_DESIGN_DATE_AND_TIME_ASSIGNMENT ( #164, #202, ( #70 ) ) ;
#204 = AXIS2_PLACEMENT_3D ( 'NONE', #162, #74, #35 ) ;
#205 = DIRECTION ( 'NONE',  ( 0.0000000000000000000, 0.0000000000000000000, 1.000000000000000000 ) ) ;
#206 = CALENDAR_DATE ( 2021, 2, 12 ) ;
#207 = APPROVAL ( #84, 'UNSPECIFIED' ) ;
#208 = MANIFOLD_SOLID_BREP ( 'Corps-Déplacer/Copier1[1]', #224 ) ;
#209 = MECHANICAL_CONTEXT ( 'NONE', #5, 'mechanical' ) ;
#210 = ORIENTED_EDGE ( 'NONE', *, *, #83, .T. ) ;
#211 = FACE_OUTER_BOUND ( 'NONE', #9, .T. ) ;
#212 = AXIS2_PLACEMENT_3D ( 'NONE', #76, #79, #160 ) ;
#213 = APPROVAL_DATE_TIME ( #155, #120 ) ;
#214 = EDGE_LOOP ( 'NONE', ( #88 ) ) ;
#215 = CARTESIAN_POINT ( 'NONE',  ( 4.189777606611760026E-14, 1.968434714743712606E-32, 12.00000000000000000 ) ) ;
#216 = DIRECTION ( 'NONE',  ( -3.491481338843133355E-15, 1.224646799147353207E-16, -1.000000000000000000 ) ) ;
#217 = FACE_OUTER_BOUND ( 'NONE', #190, .T. ) ;
#218 = PLANE ( 'NONE',  #126 ) ;
#219 = DIRECTION ( 'NONE',  ( 3.491481338843133355E-15, -1.224646799147353207E-16, 1.000000000000000000 ) ) ;
#220 = AXIS2_PLACEMENT_3D ( 'NONE', #141, #216, #56 ) ;
#221 = CARTESIAN_POINT ( 'NONE',  ( 0.0000000000000000000, 2.225000000000033840, 0.0000000000000000000 ) ) ;
#222 = COORDINATED_UNIVERSAL_TIME_OFFSET ( 1, 0, .AHEAD. ) ;
#223 = DATE_AND_TIME ( #206, #42 ) ;
#224 = CLOSED_SHELL ( 'NONE', ( #140, #115, #192, #17, #2 ) ) ;
#225 = PERSON_AND_ORGANIZATION_ROLE ( 'design_owner' ) ;
#226 =( NAMED_UNIT ( * ) SI_UNIT ( $, .STERADIAN. ) SOLID_ANGLE_UNIT ( ) );
#227 = AXIS2_PLACEMENT_3D ( 'NONE', #158, #19, #195 ) ;
#228 = SHAPE_DEFINITION_REPRESENTATION ( #113, #75 ) ;
#229 = PERSON_AND_ORGANIZATION_ROLE ( 'creator' ) ;
#230 = ORIENTED_EDGE ( 'NONE', *, *, #129, .F. ) ;
#231 = CC_DESIGN_SECURITY_CLASSIFICATION ( #85, ( #77 ) ) ;
#232 = PERSON_AND_ORGANIZATION ( #234, #135 ) ;
#233 = EDGE_CURVE ( 'NONE', #46, #46, #55, .T. ) ;
#234 = PERSON ( 'UNSPECIFIED', 'UNSPECIFIED', 'UNSPECIFIED', ('UNSPECIFIED'), ('UNSPECIFIED'), ('UNSPECIFIED') ) ;
#235 = DIRECTION ( 'NONE',  ( -3.491481338843133355E-15, 1.224646799147353207E-16, -1.000000000000000000 ) ) ;
#236 = CIRCLE ( 'NONE', #148, 2.225000000000033840 ) ;
#237 = CYLINDRICAL_SURFACE ( 'NONE', #103, 2.625000000000035083 ) ;
#238 = ADVANCED_FACE ( 'NONE', ( #123, #37 ), #142, .T. ) ;
#239 = CARTESIAN_POINT ( 'NONE',  ( 0.0000000000000000000, 0.0000000000000000000, 0.0000000000000000000 ) ) ;
#240 = FACE_BOUND ( 'NONE', #12, .T. ) ;
#241 = CARTESIAN_POINT ( 'NONE',  ( 4.189777606611760026E-14, 2.625000000000034195, 12.00000000000000000 ) ) ;
#242 = VERTEX_POINT ( 'NONE', #168 ) ;
#243 = VERTEX_POINT ( 'NONE', #221 ) ;
ENDSEC;
END-ISO-10303-21;
