ISO-10303-21;
HEADER;
FILE_DESCRIPTION (( 'STEP AP203' ),
    '1' );
FILE_NAME ('321749.step',
    '2021-12-02T12:57:16',
    ( '' ),
    ( '' ),
    'SwSTEP 2.0',
    'SolidWorks 2019',
    '' );
FILE_SCHEMA (( 'CONFIG_CONTROL_DESIGN' ));
ENDSEC;

DATA;
#1 = ORIENTED_EDGE ( 'NONE', *, *, #149, .F. ) ;
#2 = PRODUCT_DEFINITION ( 'UNKNOWN', '', #227, #92 ) ;
#3 = DIRECTION ( 'NONE',  ( 4.275831445896958607E-31, 1.000000000000000000, 1.224646799147353207E-16 ) ) ;
#4 = PRODUCT_RELATED_PRODUCT_CATEGORY ( 'detail', '', ( #157 ) ) ;
#5 = ORIENTED_EDGE ( 'NONE', *, *, #121, .T. ) ;
#6 = FACE_BOUND ( 'NONE', #198, .T. ) ;
#7 = SECURITY_CLASSIFICATION ( '', '', #73 ) ;
#8 = FACE_BOUND ( 'NONE', #219, .T. ) ;
#9 = DIRECTION ( 'NONE',  ( 0.0000000000000000000, 0.0000000000000000000, 1.000000000000000000 ) ) ;
#10 = PERSON_AND_ORGANIZATION ( #44, #240 ) ;
#11 =( LENGTH_UNIT ( ) NAMED_UNIT ( * ) SI_UNIT ( .MILLI., .METRE. ) );
#12 = CARTESIAN_POINT ( 'NONE',  ( 4.561694125573911991E-14, 1.999999999999990452, 13.06521124665493083 ) ) ;
#13 = CC_DESIGN_PERSON_AND_ORGANIZATION_ASSIGNMENT ( #10, #233, ( #157 ) ) ;
#14 = DIRECTION ( 'NONE',  ( -3.491481338843133355E-15, 1.224646799147353207E-16, -1.000000000000000000 ) ) ;
#15 = EDGE_LOOP ( 'NONE', ( #35 ) ) ;
#16 = APPROVAL_PERSON_ORGANIZATION ( #141, #132, #167 ) ;
#17 = LOCAL_TIME ( 13, 57, 16.00000000000000000, #199 ) ;
#18 = PERSON_AND_ORGANIZATION ( #44, #240 ) ;
#19 = EDGE_CURVE ( 'NONE', #124, #124, #26, .T. ) ;
#20 = DIRECTION ( 'NONE',  ( -4.275831445896958607E-31, -1.000000000000000000, -1.224646799147353207E-16 ) ) ;
#21 = DIRECTION ( 'NONE',  ( -3.491481338843133355E-15, 1.224646799147353207E-16, -1.000000000000000000 ) ) ;
#22 = CONICAL_SURFACE ( 'NONE', #102, 2.215000000000033165, 0.7853981633974504994 ) ;
#23 = DIRECTION ( 'NONE',  ( -4.275831445896958607E-31, -1.000000000000000000, -1.224646799147353207E-16 ) ) ;
#24 = DIRECTION ( 'NONE',  ( 0.0000000000000000000, 1.000000000000000000, 0.0000000000000000000 ) ) ;
#25 = DIRECTION ( 'NONE',  ( -3.491481338843133355E-15, 1.224646799147353207E-16, -1.000000000000000000 ) ) ;
#26 = CIRCLE ( 'NONE', #183, 1.999999999999992228 ) ;
#27 = UNCERTAINTY_MEASURE_WITH_UNIT (LENGTH_MEASURE( 1.000000000000000082E-05 ), #11, 'distance_accuracy_value', 'NONE');
#28 = CC_DESIGN_PERSON_AND_ORGANIZATION_ASSIGNMENT ( #133, #46, ( #7 ) ) ;
#29 = CARTESIAN_POINT ( 'NONE',  ( 2.793185071074506684E-13, 1.199807826129472128E-32, 80.00000000000000000 ) ) ;
#30 = DIRECTION ( 'NONE',  ( 4.275831445896958607E-31, 1.000000000000000000, 1.224646799147353207E-16 ) ) ;
#31 = CONICAL_SURFACE ( 'NONE', #60, 1.600000000000000977, 0.7853981633974512766 ) ;
#32 = COORDINATED_UNIVERSAL_TIME_OFFSET ( 1, 0, .AHEAD. ) ;
#33 = ORIENTED_EDGE ( 'NONE', *, *, #59, .F. ) ;
#34 = DIRECTION ( 'NONE',  ( 0.0000000000000000000, 1.000000000000000000, 0.0000000000000000000 ) ) ;
#35 = ORIENTED_EDGE ( 'NONE', *, *, #197, .F. ) ;
#36 = CIRCLE ( 'NONE', #58, 2.215000000000033165 ) ;
#37 = ADVANCED_FACE ( 'NONE', ( #118 ), #62, .T. ) ;
#38 = CALENDAR_DATE ( 2021, 2, 12 ) ;
#39 = APPROVAL_STATUS ( 'not_yet_approved' ) ;
#40 = AXIS2_PLACEMENT_3D ( 'NONE', #151, #225, #23 ) ;
#41 = EDGE_LOOP ( 'NONE', ( #113 ) ) ;
#42 = APPROVAL ( #86, 'UNSPECIFIED' ) ;
#43 = CALENDAR_DATE ( 2021, 2, 12 ) ;
#44 = PERSON ( 'UNSPECIFIED', 'UNSPECIFIED', 'UNSPECIFIED', ('UNSPECIFIED'), ('UNSPECIFIED'), ('UNSPECIFIED') ) ;
#45 = FACE_OUTER_BOUND ( 'NONE', #110, .T. ) ;
#46 = PERSON_AND_ORGANIZATION_ROLE ( 'classification_officer' ) ;
#47 = ORIENTED_EDGE ( 'NONE', *, *, #129, .F. ) ;
#48 = EDGE_LOOP ( 'NONE', ( #107 ) ) ;
#49 = AXIS2_PLACEMENT_3D ( 'NONE', #120, #186, #24 ) ;
#50 = PRODUCT_DEFINITION_SHAPE ( 'NONE', 'NONE',  #2 ) ;
#51 = DIRECTION ( 'NONE',  ( 4.275831445896958607E-31, 1.000000000000000000, 1.224646799147353207E-16 ) ) ;
#52 = DIRECTION ( 'NONE',  ( 4.275831445896959482E-31, 1.000000000000000000, 1.224646799147353207E-16 ) ) ;
#53 = CARTESIAN_POINT ( 'NONE',  ( 2.779219145719134403E-13, -9.748188521212932624E-15, 79.60000000000000853 ) ) ;
#54 = VERTEX_POINT ( 'NONE', #208 ) ;
#55 = MECHANICAL_CONTEXT ( 'NONE', #211, 'mechanical' ) ;
#56 = ORIENTED_EDGE ( 'NONE', *, *, #121, .F. ) ;
#57 = ADVANCED_FACE ( 'NONE', ( #45, #8 ), #31, .T. ) ;
#58 = AXIS2_PLACEMENT_3D ( 'NONE', #84, #207, #52 ) ;
#59 = EDGE_CURVE ( 'NONE', #145, #145, #215, .T. ) ;
#60 = AXIS2_PLACEMENT_3D ( 'NONE', #77, #25, #185 ) ;
#61 = FACE_OUTER_BOUND ( 'NONE', #48, .T. ) ;
#62 = PLANE ( 'NONE',  #74 ) ;
#63 = CYLINDRICAL_SURFACE ( 'NONE', #76, 1.999999999999996669 ) ;
#64 = LOCAL_TIME ( 13, 57, 16.00000000000000000, #32 ) ;
#65 = DIRECTION ( 'NONE',  ( -3.491481338843133355E-15, 1.224646799147353207E-16, -1.000000000000000000 ) ) ;
#66 = CARTESIAN_POINT ( 'NONE',  ( 4.189777606611760026E-14, 1.960935915830403263E-32, 12.00000000000000000 ) ) ;
#67 = AXIS2_PLACEMENT_3D ( 'NONE', #103, #9, #162 ) ;
#68 = FACE_OUTER_BOUND ( 'NONE', #69, .T. ) ;
#69 = EDGE_LOOP ( 'NONE', ( #56 ) ) ;
#70 = CARTESIAN_POINT ( 'NONE',  ( 2.793185071074506684E-13, 1.599999999999991207, 80.00000000000000000 ) ) ;
#71 = CC_DESIGN_APPROVAL ( #42, ( #2 ) ) ;
#72 = ADVANCED_FACE ( 'NONE', ( #6, #169 ), #131, .T. ) ;
#73 = SECURITY_CLASSIFICATION_LEVEL ( 'unclassified' ) ;
#74 = AXIS2_PLACEMENT_3D ( 'NONE', #66, #181, #20 ) ;
#75 = SHAPE_DEFINITION_REPRESENTATION ( #50, #139 ) ;
#76 = AXIS2_PLACEMENT_3D ( 'NONE', #137, #206, #51 ) ;
#77 = CARTESIAN_POINT ( 'NONE',  ( 2.793185071074506684E-13, -9.797174393178826052E-15, 80.00000000000000000 ) ) ;
#78 = CALENDAR_DATE ( 2021, 2, 12 ) ;
#79 = ADVANCED_FACE ( 'NONE', ( #61, #182 ), #22, .T. ) ;
#80 = FACE_OUTER_BOUND ( 'NONE', #41, .T. ) ;
#81 = DIRECTION ( 'NONE',  ( 0.0000000000000000000, 1.000000000000000000, 0.0000000000000000000 ) ) ;
#82 = DATE_AND_TIME ( #152, #64 ) ;
#83 = ADVANCED_FACE ( 'NONE', ( #134 ), #153, .T. ) ;
#84 = CARTESIAN_POINT ( 'NONE',  ( -9.470966652661907060E-31, 3.321967918596065125E-32, -2.712592660111428063E-16 ) ) ;
#85 = APPLICATION_PROTOCOL_DEFINITION ( 'international standard', 'config_control_design', 1994, #211 ) ;
#86 = APPROVAL_STATUS ( 'not_yet_approved' ) ;
#87 = AXIS2_PLACEMENT_3D ( 'NONE', #155, #95, #223 ) ;
#88 = VERTEX_POINT ( 'NONE', #143 ) ;
#89 = EDGE_LOOP ( 'NONE', ( #33 ) ) ;
#90 = CARTESIAN_POINT ( 'NONE',  ( 0.0000000000000000000, 2.215000000000033165, 0.0000000000000000000 ) ) ;
#91 = CC_DESIGN_PERSON_AND_ORGANIZATION_ASSIGNMENT ( #241, #221, ( #227 ) ) ;
#92 = DESIGN_CONTEXT ( 'detailed design', #238, 'design' ) ;
#93 = LOCAL_TIME ( 13, 57, 16.00000000000000000, #180 ) ;
#94 = EDGE_LOOP ( 'NONE', ( #1 ) ) ;
#95 = DIRECTION ( 'NONE',  ( -3.491481338843133355E-15, 1.224646799147353207E-16, -1.000000000000000000 ) ) ;
#96 = DIRECTION ( 'NONE',  ( 3.491481338843133355E-15, -1.224646799147353207E-16, 1.000000000000000000 ) ) ;
#97 = APPROVAL_STATUS ( 'not_yet_approved' ) ;
#98 = PLANE ( 'NONE',  #40 ) ;
#99 = CARTESIAN_POINT ( 'NONE',  ( 4.189777606611760026E-14, -1.469576158976823947E-15, 12.00000000000000000 ) ) ;
#100 = ADVANCED_FACE ( 'NONE', ( #122 ), #98, .F. ) ;
#101 = FACE_OUTER_BOUND ( 'NONE', #89, .T. ) ;
#102 = AXIS2_PLACEMENT_3D ( 'NONE', #200, #96, #228 ) ;
#103 = CARTESIAN_POINT ( 'NONE',  ( 0.0000000000000000000, 0.0000000000000000000, 0.0000000000000000000 ) ) ;
#104 = DIRECTION ( 'NONE',  ( 0.0000000000000000000, 1.000000000000000000, 0.0000000000000000000 ) ) ;
#105 = DIRECTION ( 'NONE',  ( -3.491481338843133355E-15, 1.224646799147353207E-16, -1.000000000000000000 ) ) ;
#106 = PLANE ( 'NONE',  #146 ) ;
#107 = ORIENTED_EDGE ( 'NONE', *, *, #59, .T. ) ;
#108 = CC_DESIGN_DATE_AND_TIME_ASSIGNMENT ( #82, #229, ( #2 ) ) ;
#109 = APPROVAL_PERSON_ORGANIZATION ( #239, #142, #203 ) ;
#110 = EDGE_LOOP ( 'NONE', ( #234 ) ) ;
#111 = CIRCLE ( 'NONE', #190, 2.615000000000034852 ) ;
#112 = PERSON_AND_ORGANIZATION_ROLE ( 'design_supplier' ) ;
#113 = ORIENTED_EDGE ( 'NONE', *, *, #19, .F. ) ;
#114 = ADVANCED_FACE ( 'NONE', ( #80, #226 ), #63, .T. ) ;
#115 = CARTESIAN_POINT ( 'NONE',  ( 4.561694125573911991E-14, -1.600026913339996104E-15, 13.06521124665493083 ) ) ;
#116 = APPROVAL_DATE_TIME ( #196, #142 ) ;
#117 = AXIS2_PLACEMENT_3D ( 'NONE', #156, #165, #30 ) ;
#118 = FACE_OUTER_BOUND ( 'NONE', #217, .T. ) ;
#119 = MANIFOLD_SOLID_BREP ( 'Corps-Déplacer/Copier1[2]', #205 ) ;
#120 = CARTESIAN_POINT ( 'NONE',  ( 2.793185071074506684E-13, -9.797174393178826052E-15, 80.00000000000000000 ) ) ;
#121 = EDGE_CURVE ( 'NONE', #210, #210, #179, .T. ) ;
#122 = FACE_OUTER_BOUND ( 'NONE', #171, .T. ) ;
#123 = CIRCLE ( 'NONE', #235, 2.000000000000000888 ) ;
#124 = VERTEX_POINT ( 'NONE', #12 ) ;
#125 = APPROVAL_ROLE ( '' ) ;
#126 = PERSON_AND_ORGANIZATION_ROLE ( 'creator' ) ;
#127 = CC_DESIGN_APPROVAL ( #132, ( #227 ) ) ;
#128 =( NAMED_UNIT ( * ) PLANE_ANGLE_UNIT ( ) SI_UNIT ( $, .RADIAN. ) );
#129 = EDGE_CURVE ( 'NONE', #54, #54, #220, .T. ) ;
#130 = ORIENTED_EDGE ( 'NONE', *, *, #163, .T. ) ;
#131 = CONICAL_SURFACE ( 'NONE', #87, 2.615000000000034852, 0.5235987755982999259 ) ;
#132 = APPROVAL ( #97, 'UNSPECIFIED' ) ;
#133 = PERSON_AND_ORGANIZATION ( #44, #240 ) ;
#134 = FACE_OUTER_BOUND ( 'NONE', #164, .T. ) ;
#135 = CARTESIAN_POINT ( 'NONE',  ( 1.396592535537251370E-15, -4.898587196589405680E-17, 0.3999999999999994116 ) ) ;
#136 = APPROVAL_PERSON_ORGANIZATION ( #140, #42, #125 ) ;
#137 = CARTESIAN_POINT ( 'NONE',  ( 0.0000000000000000000, 0.0000000000000000000, 0.0000000000000000000 ) ) ;
#138 = DIRECTION ( 'NONE',  ( 0.0000000000000000000, 1.000000000000000000, 0.0000000000000000000 ) ) ;
#139 = ADVANCED_BREP_SHAPE_REPRESENTATION ( '321749', ( #192, #119, #67 ), #177 ) ;
#140 = PERSON_AND_ORGANIZATION ( #44, #240 ) ;
#141 = PERSON_AND_ORGANIZATION ( #44, #240 ) ;
#142 = APPROVAL ( #39, 'UNSPECIFIED' ) ;
#143 = CARTESIAN_POINT ( 'NONE',  ( 2.779219145719134403E-13, 1.999999999999991340, 79.60000000000000853 ) ) ;
#144 = COORDINATED_UNIVERSAL_TIME_OFFSET ( 1, 0, .AHEAD. ) ;
#145 = VERTEX_POINT ( 'NONE', #188 ) ;
#146 = AXIS2_PLACEMENT_3D ( 'NONE', #29, #231, #175 ) ;
#147 = AXIS2_PLACEMENT_3D ( 'NONE', #99, #65, #138 ) ;
#148 = COORDINATED_UNIVERSAL_TIME_OFFSET ( 1, 0, .AHEAD. ) ;
#149 = EDGE_CURVE ( 'NONE', #189, #189, #36, .T. ) ;
#150 = DIRECTION ( 'NONE',  ( 4.418959719435281435E-31, 1.000000000000000000, 1.243826584113372814E-16 ) ) ;
#151 = CARTESIAN_POINT ( 'NONE',  ( 4.189777606611760026E-14, 1.960935915830403263E-32, 12.00000000000000000 ) ) ;
#152 = CALENDAR_DATE ( 2021, 2, 12 ) ;
#153 = PLANE ( 'NONE',  #160 ) ;
#154 = CC_DESIGN_SECURITY_CLASSIFICATION ( #7, ( #227 ) ) ;
#155 = CARTESIAN_POINT ( 'NONE',  ( 4.189777606611760026E-14, -1.469576158976823947E-15, 12.00000000000000000 ) ) ;
#156 = CARTESIAN_POINT ( 'NONE',  ( 0.0000000000000000000, 0.0000000000000000000, 0.0000000000000000000 ) ) ;
#157 = PRODUCT ( '321749', '321749', '', ( #55 ) ) ;
#158 = APPLICATION_PROTOCOL_DEFINITION ( 'international standard', 'config_control_design', 1994, #238 ) ;
#159 = ADVANCED_FACE ( 'NONE', ( #187, #101 ), #173, .T. ) ;
#160 = AXIS2_PLACEMENT_3D ( 'NONE', #204, #170, #3 ) ;
#161 = CALENDAR_DATE ( 2021, 2, 12 ) ;
#162 = DIRECTION ( 'NONE',  ( 1.000000000000000000, 0.0000000000000000000, 0.0000000000000000000 ) ) ;
#163 = EDGE_CURVE ( 'NONE', #88, #88, #123, .T. ) ;
#164 = EDGE_LOOP ( 'NONE', ( #193 ) ) ;
#165 = DIRECTION ( 'NONE',  ( -3.491481338843133355E-15, 1.224646799147353207E-16, -1.000000000000000000 ) ) ;
#166 = LOCAL_TIME ( 13, 57, 16.00000000000000000, #144 ) ;
#167 = APPROVAL_ROLE ( '' ) ;
#168 = EDGE_LOOP ( 'NONE', ( #130 ) ) ;
#169 = FACE_OUTER_BOUND ( 'NONE', #15, .T. ) ;
#170 = DIRECTION ( 'NONE',  ( -3.491481338843133355E-15, 1.224646799147353207E-16, -1.000000000000000000 ) ) ;
#171 = EDGE_LOOP ( 'NONE', ( #178 ) ) ;
#172 = DIRECTION ( 'NONE',  ( -3.491481338843133355E-15, 1.224646799147353207E-16, -1.000000000000000000 ) ) ;
#173 = CYLINDRICAL_SURFACE ( 'NONE', #117, 2.615000000000034852 ) ;
#174 = AXIS2_PLACEMENT_3D ( 'NONE', #135, #21, #150 ) ;
#175 = DIRECTION ( 'NONE',  ( 4.275831445896958607E-31, 1.000000000000000000, 1.224646799147353207E-16 ) ) ;
#176 = CARTESIAN_POINT ( 'NONE',  ( 4.189777606611760026E-14, -1.469576158976823947E-15, 12.00000000000000000 ) ) ;
#177 =( GEOMETRIC_REPRESENTATION_CONTEXT ( 3 ) GLOBAL_UNCERTAINTY_ASSIGNED_CONTEXT ( ( #27 ) ) GLOBAL_UNIT_ASSIGNED_CONTEXT ( ( #11, #128, #236 ) ) REPRESENTATION_CONTEXT ( 'NONE', 'WORKASPACE' ) );
#178 = ORIENTED_EDGE ( 'NONE', *, *, #197, .T. ) ;
#179 = CIRCLE ( 'NONE', #49, 1.600000000000000977 ) ;
#180 = COORDINATED_UNIVERSAL_TIME_OFFSET ( 1, 0, .AHEAD. ) ;
#181 = DIRECTION ( 'NONE',  ( 3.491481338843133355E-15, -1.224646799147353207E-16, 1.000000000000000000 ) ) ;
#182 = FACE_BOUND ( 'NONE', #94, .T. ) ;
#183 = AXIS2_PLACEMENT_3D ( 'NONE', #115, #172, #81 ) ;
#184 = CLOSED_SHELL ( 'NONE', ( #100, #72, #114, #57, #218 ) ) ;
#185 = DIRECTION ( 'NONE',  ( 0.0000000000000000000, 1.000000000000000000, 0.0000000000000000000 ) ) ;
#186 = DIRECTION ( 'NONE',  ( -3.491481338843133355E-15, 1.224646799147353207E-16, -1.000000000000000000 ) ) ;
#187 = FACE_OUTER_BOUND ( 'NONE', #202, .T. ) ;
#188 = CARTESIAN_POINT ( 'NONE',  ( 1.396592535537252553E-15, 2.615000000000034852, 0.3999999999999997446 ) ) ;
#189 = VERTEX_POINT ( 'NONE', #90 ) ;
#190 = AXIS2_PLACEMENT_3D ( 'NONE', #176, #105, #34 ) ;
#191 = VERTEX_POINT ( 'NONE', #216 ) ;
#192 = MANIFOLD_SOLID_BREP ( 'Corps-Déplacer/Copier1[1]', #184 ) ;
#193 = ORIENTED_EDGE ( 'NONE', *, *, #149, .T. ) ;
#194 = CC_DESIGN_PERSON_AND_ORGANIZATION_ASSIGNMENT ( #18, #112, ( #227 ) ) ;
#195 = CC_DESIGN_APPROVAL ( #142, ( #7 ) ) ;
#196 = DATE_AND_TIME ( #43, #17 ) ;
#197 = EDGE_CURVE ( 'NONE', #191, #191, #111, .T. ) ;
#198 = EDGE_LOOP ( 'NONE', ( #214 ) ) ;
#199 = COORDINATED_UNIVERSAL_TIME_OFFSET ( 1, 0, .AHEAD. ) ;
#200 = CARTESIAN_POINT ( 'NONE',  ( -9.470966652661907060E-31, 3.321967918596065125E-32, -2.712592660111428063E-16 ) ) ;
#201 = DATE_AND_TIME ( #78, #209 ) ;
#202 = EDGE_LOOP ( 'NONE', ( #230 ) ) ;
#203 = APPROVAL_ROLE ( '' ) ;
#204 = CARTESIAN_POINT ( 'NONE',  ( -4.735483326330953530E-31, 1.660983959298032562E-32, -1.356296330055714031E-16 ) ) ;
#205 = CLOSED_SHELL ( 'NONE', ( #159, #37, #83, #79 ) ) ;
#206 = DIRECTION ( 'NONE',  ( -3.491481338843133355E-15, 1.224646799147353207E-16, -1.000000000000000000 ) ) ;
#207 = DIRECTION ( 'NONE',  ( -3.491481338843133355E-15, 1.224646799147353207E-16, -1.000000000000000000 ) ) ;
#208 = CARTESIAN_POINT ( 'NONE',  ( 4.189777606611760026E-14, 2.615000000000033520, 12.00000000000000000 ) ) ;
#209 = LOCAL_TIME ( 13, 57, 16.00000000000000000, #148 ) ;
#210 = VERTEX_POINT ( 'NONE', #70 ) ;
#211 = APPLICATION_CONTEXT ( 'configuration controlled 3d designs of mechanical parts and assemblies' ) ;
#212 = APPROVAL_DATE_TIME ( #232, #42 ) ;
#213 = PERSON_AND_ORGANIZATION ( #44, #240 ) ;
#214 = ORIENTED_EDGE ( 'NONE', *, *, #19, .T. ) ;
#215 = CIRCLE ( 'NONE', #174, 2.615000000000034852 ) ;
#216 = CARTESIAN_POINT ( 'NONE',  ( 4.189777606611760026E-14, 2.615000000000033520, 12.00000000000000000 ) ) ;
#217 = EDGE_LOOP ( 'NONE', ( #47 ) ) ;
#218 = ADVANCED_FACE ( 'NONE', ( #68 ), #106, .F. ) ;
#219 = EDGE_LOOP ( 'NONE', ( #5 ) ) ;
#220 = CIRCLE ( 'NONE', #147, 2.615000000000034852 ) ;
#221 = PERSON_AND_ORGANIZATION_ROLE ( 'creator' ) ;
#222 = DATE_TIME_ROLE ( 'classification_date' ) ;
#223 = DIRECTION ( 'NONE',  ( 0.0000000000000000000, 1.000000000000000000, 0.0000000000000000000 ) ) ;
#224 = CC_DESIGN_DATE_AND_TIME_ASSIGNMENT ( #201, #222, ( #7 ) ) ;
#225 = DIRECTION ( 'NONE',  ( 3.491481338843133355E-15, -1.224646799147353207E-16, 1.000000000000000000 ) ) ;
#226 = FACE_OUTER_BOUND ( 'NONE', #168, .T. ) ;
#227 = PRODUCT_DEFINITION_FORMATION_WITH_SPECIFIED_SOURCE ( 'ANY', '', #157, .NOT_KNOWN. ) ;
#228 = DIRECTION ( 'NONE',  ( -4.275831445896959482E-31, -1.000000000000000000, -1.224646799147353207E-16 ) ) ;
#229 = DATE_TIME_ROLE ( 'creation_date' ) ;
#230 = ORIENTED_EDGE ( 'NONE', *, *, #129, .T. ) ;
#231 = DIRECTION ( 'NONE',  ( -3.491481338843133355E-15, 1.224646799147353207E-16, -1.000000000000000000 ) ) ;
#232 = DATE_AND_TIME ( #161, #166 ) ;
#233 = PERSON_AND_ORGANIZATION_ROLE ( 'design_owner' ) ;
#234 = ORIENTED_EDGE ( 'NONE', *, *, #163, .F. ) ;
#235 = AXIS2_PLACEMENT_3D ( 'NONE', #53, #14, #104 ) ;
#236 =( NAMED_UNIT ( * ) SI_UNIT ( $, .STERADIAN. ) SOLID_ANGLE_UNIT ( ) );
#237 = CC_DESIGN_PERSON_AND_ORGANIZATION_ASSIGNMENT ( #213, #126, ( #2 ) ) ;
#238 = APPLICATION_CONTEXT ( 'configuration controlled 3d designs of mechanical parts and assemblies' ) ;
#239 = PERSON_AND_ORGANIZATION ( #44, #240 ) ;
#240 = ORGANIZATION ( 'UNSPECIFIED', 'UNSPECIFIED', '' ) ;
#241 = PERSON_AND_ORGANIZATION ( #44, #240 ) ;
#242 = APPROVAL_DATE_TIME ( #243, #132 ) ;
#243 = DATE_AND_TIME ( #38, #93 ) ;
ENDSEC;
END-ISO-10303-21;
