ISO-10303-21;
HEADER;
FILE_DESCRIPTION (( 'STEP AP203' ),
    '1' );
FILE_NAME ('321748.step',
    '2021-12-02T12:57:16',
    ( '' ),
    ( '' ),
    'SwSTEP 2.0',
    'SolidWorks 2019',
    '' );
FILE_SCHEMA (( 'CONFIG_CONTROL_DESIGN' ));
ENDSEC;

DATA;
#1 = PLANE ( 'NONE',  #53 ) ;
#2 = CC_DESIGN_PERSON_AND_ORGANIZATION_ASSIGNMENT ( #178, #184, ( #240 ) ) ;
#3 = LOCAL_TIME ( 13, 57, 16.00000000000000000, #144 ) ;
#4 = DIRECTION ( 'NONE',  ( 4.275831445896958607E-31, 1.000000000000000000, 1.224646799147353207E-16 ) ) ;
#5 = CARTESIAN_POINT ( 'NONE',  ( -4.724793747716210297E-31, 1.657234559841377617E-32, -1.353234713057845840E-16 ) ) ;
#6 = DIRECTION ( 'NONE',  ( -4.275831445896957731E-31, -1.000000000000000000, -1.224646799147353207E-16 ) ) ;
#7 = CIRCLE ( 'NONE', #143, 2.210000000000033715 ) ;
#8 = DIRECTION ( 'NONE',  ( 3.491481338843133355E-15, -1.224646799147353207E-16, 1.000000000000000000 ) ) ;
#9 = VERTEX_POINT ( 'NONE', #235 ) ;
#10 = CARTESIAN_POINT ( 'NONE',  ( 4.189777606611760026E-14, 2.610000000000033626, 12.00000000000000000 ) ) ;
#11 = CIRCLE ( 'NONE', #156, 2.610000000000034959 ) ;
#12 = CARTESIAN_POINT ( 'NONE',  ( 4.189777606611760026E-14, 1.957186516373748591E-32, 12.00000000000000000 ) ) ;
#13 = EDGE_LOOP ( 'NONE', ( #82 ) ) ;
#14 = APPROVAL_DATE_TIME ( #85, #62 ) ;
#15 = CALENDAR_DATE ( 2021, 2, 12 ) ;
#16 = CLOSED_SHELL ( 'NONE', ( #160, #86, #186, #30, #94 ) ) ;
#17 = APPROVAL ( #91, 'UNSPECIFIED' ) ;
#18 = PRODUCT ( '321748', '321748', '', ( #123 ) ) ;
#19 = DIRECTION ( 'NONE',  ( -3.491481338843133355E-15, 1.224646799147353207E-16, -1.000000000000000000 ) ) ;
#20 = DIRECTION ( 'NONE',  ( -3.491481338843133355E-15, 1.224646799147353207E-16, -1.000000000000000000 ) ) ;
#21 = DIRECTION ( 'NONE',  ( -3.491481338843133355E-15, 1.224646799147353207E-16, -1.000000000000000000 ) ) ;
#22 = ORIENTED_EDGE ( 'NONE', *, *, #142, .T. ) ;
#23 = DIRECTION ( 'NONE',  ( 4.275831445896958607E-31, 1.000000000000000000, 1.224646799147353207E-16 ) ) ;
#24 = PRODUCT_DEFINITION_FORMATION_WITH_SPECIFIED_SOURCE ( 'ANY', '', #18, .NOT_KNOWN. ) ;
#25 = AXIS2_PLACEMENT_3D ( 'NONE', #215, #28, #81 ) ;
#26 = CC_DESIGN_PERSON_AND_ORGANIZATION_ASSIGNMENT ( #243, #222, ( #24 ) ) ;
#27 =( NAMED_UNIT ( * ) PLANE_ANGLE_UNIT ( ) SI_UNIT ( $, .RADIAN. ) );
#28 = DIRECTION ( 'NONE',  ( -3.491481338843133355E-15, 1.224646799147353207E-16, -1.000000000000000000 ) ) ;
#29 = DIRECTION ( 'NONE',  ( 4.275831445896957731E-31, 1.000000000000000000, 1.224646799147353207E-16 ) ) ;
#30 = ADVANCED_FACE ( 'NONE', ( #119, #116 ), #124, .T. ) ;
#31 = EDGE_LOOP ( 'NONE', ( #170 ) ) ;
#32 =( LENGTH_UNIT ( ) NAMED_UNIT ( * ) SI_UNIT ( .MILLI., .METRE. ) );
#33 = CC_DESIGN_SECURITY_CLASSIFICATION ( #84, ( #24 ) ) ;
#34 = APPROVAL_DATE_TIME ( #202, #17 ) ;
#35 = COORDINATED_UNIVERSAL_TIME_OFFSET ( 1, 0, .AHEAD. ) ;
#36 = ADVANCED_FACE ( 'NONE', ( #69, #226 ), #134, .T. ) ;
#37 = CARTESIAN_POINT ( 'NONE',  ( -9.449587495432420595E-31, 3.314469119682755235E-32, -2.706469426115691680E-16 ) ) ;
#38 = EDGE_LOOP ( 'NONE', ( #169 ) ) ;
#39 = DIRECTION ( 'NONE',  ( 0.0000000000000000000, 1.000000000000000000, 0.0000000000000000000 ) ) ;
#40 = LOCAL_TIME ( 13, 57, 16.00000000000000000, #60 ) ;
#41 = FACE_OUTER_BOUND ( 'NONE', #189, .T. ) ;
#42 = ORIENTED_EDGE ( 'NONE', *, *, #66, .T. ) ;
#43 = CARTESIAN_POINT ( 'NONE',  ( -9.449587495432420595E-31, 3.314469119682755235E-32, -2.706469426115691680E-16 ) ) ;
#44 = DIRECTION ( 'NONE',  ( 1.000000000000000000, 0.0000000000000000000, 0.0000000000000000000 ) ) ;
#45 = CARTESIAN_POINT ( 'NONE',  ( 1.396592535537252553E-15, 2.610000000000034959, 0.3999999999999997446 ) ) ;
#46 = CIRCLE ( 'NONE', #110, 2.610000000000034959 ) ;
#47 = VERTEX_POINT ( 'NONE', #10 ) ;
#48 = AXIS2_PLACEMENT_3D ( 'NONE', #115, #21, #57 ) ;
#49 = APPROVAL_STATUS ( 'not_yet_approved' ) ;
#50 = EDGE_LOOP ( 'NONE', ( #51 ) ) ;
#51 = ORIENTED_EDGE ( 'NONE', *, *, #231, .F. ) ;
#52 = DIRECTION ( 'NONE',  ( 4.275831445896958607E-31, 1.000000000000000000, 1.224646799147353207E-16 ) ) ;
#53 = AXIS2_PLACEMENT_3D ( 'NONE', #5, #90, #4 ) ;
#54 = ORIENTED_EDGE ( 'NONE', *, *, #126, .T. ) ;
#55 = EDGE_LOOP ( 'NONE', ( #42 ) ) ;
#56 = PLANE ( 'NONE',  #136 ) ;
#57 = DIRECTION ( 'NONE',  ( 4.427425159510827544E-31, 1.000000000000000000, 1.246209393661482609E-16 ) ) ;
#58 = DIRECTION ( 'NONE',  ( 4.275831445896958607E-31, 1.000000000000000000, 1.224646799147353207E-16 ) ) ;
#59 = CIRCLE ( 'NONE', #25, 1.999999999999992228 ) ;
#60 = COORDINATED_UNIVERSAL_TIME_OFFSET ( 1, 0, .AHEAD. ) ;
#61 = APPROVAL_ROLE ( '' ) ;
#62 = APPROVAL ( #49, 'UNSPECIFIED' ) ;
#63 =( GEOMETRIC_REPRESENTATION_CONTEXT ( 3 ) GLOBAL_UNCERTAINTY_ASSIGNED_CONTEXT ( ( #208 ) ) GLOBAL_UNIT_ASSIGNED_CONTEXT ( ( #32, #27, #236 ) ) REPRESENTATION_CONTEXT ( 'NONE', 'WORKASPACE' ) );
#64 = PERSON ( 'UNSPECIFIED', 'UNSPECIFIED', 'UNSPECIFIED', ('UNSPECIFIED'), ('UNSPECIFIED'), ('UNSPECIFIED') ) ;
#65 = CALENDAR_DATE ( 2021, 2, 12 ) ;
#66 = EDGE_CURVE ( 'NONE', #197, #197, #73, .T. ) ;
#67 = COORDINATED_UNIVERSAL_TIME_OFFSET ( 1, 0, .AHEAD. ) ;
#68 = CONICAL_SURFACE ( 'NONE', #242, 2.610000000000034959, 0.5235987755983003700 ) ;
#69 = FACE_OUTER_BOUND ( 'NONE', #153, .T. ) ;
#70 = CARTESIAN_POINT ( 'NONE',  ( 4.189777606611760026E-14, -1.469576158976823947E-15, 12.00000000000000000 ) ) ;
#71 = DIRECTION ( 'NONE',  ( -3.491481338843133355E-15, 1.224646799147353207E-16, -1.000000000000000000 ) ) ;
#72 = CARTESIAN_POINT ( 'NONE',  ( 0.0000000000000000000, 0.0000000000000000000, 0.0000000000000000000 ) ) ;
#73 = CIRCLE ( 'NONE', #221, 1.600000000000000977 ) ;
#74 = PERSON_AND_ORGANIZATION_ROLE ( 'design_owner' ) ;
#75 = ADVANCED_FACE ( 'NONE', ( #191, #131 ), #185, .T. ) ;
#76 = DIRECTION ( 'NONE',  ( 0.0000000000000000000, 1.000000000000000000, 0.0000000000000000000 ) ) ;
#77 = DIRECTION ( 'NONE',  ( -3.491481338843133355E-15, 1.224646799147353207E-16, -1.000000000000000000 ) ) ;
#78 = VERTEX_POINT ( 'NONE', #99 ) ;
#79 = CLOSED_SHELL ( 'NONE', ( #36, #211, #117, #75 ) ) ;
#80 = VERTEX_POINT ( 'NONE', #141 ) ;
#81 = DIRECTION ( 'NONE',  ( 0.0000000000000000000, 1.000000000000000000, 0.0000000000000000000 ) ) ;
#82 = ORIENTED_EDGE ( 'NONE', *, *, #104, .F. ) ;
#83 = DATE_AND_TIME ( #223, #175 ) ;
#84 = SECURITY_CLASSIFICATION ( '', '', #220 ) ;
#85 = DATE_AND_TIME ( #65, #100 ) ;
#86 = ADVANCED_FACE ( 'NONE', ( #166, #234 ), #68, .T. ) ;
#87 = PERSON_AND_ORGANIZATION_ROLE ( 'design_supplier' ) ;
#88 = CIRCLE ( 'NONE', #48, 2.610000000000034959 ) ;
#89 = ORIENTED_EDGE ( 'NONE', *, *, #218, .F. ) ;
#90 = DIRECTION ( 'NONE',  ( -3.491481338843133355E-15, 1.224646799147353207E-16, -1.000000000000000000 ) ) ;
#91 = APPROVAL_STATUS ( 'not_yet_approved' ) ;
#92 = DIRECTION ( 'NONE',  ( -3.491481338843133355E-15, 1.224646799147353207E-16, -1.000000000000000000 ) ) ;
#93 = CARTESIAN_POINT ( 'NONE',  ( 2.793185071074506684E-13, 1.199807826129472128E-32, 80.00000000000000000 ) ) ;
#94 = ADVANCED_FACE ( 'NONE', ( #41 ), #152, .F. ) ;
#95 = DIRECTION ( 'NONE',  ( -3.491481338843133355E-15, 1.224646799147353207E-16, -1.000000000000000000 ) ) ;
#96 = LOCAL_TIME ( 13, 57, 16.00000000000000000, #67 ) ;
#97 = CARTESIAN_POINT ( 'NONE',  ( 2.779219145719134403E-13, 1.999999999999991340, 79.60000000000000853 ) ) ;
#98 = APPLICATION_PROTOCOL_DEFINITION ( 'international standard', 'config_control_design', 1994, #207 ) ;
#99 = CARTESIAN_POINT ( 'NONE',  ( 0.0000000000000000000, 2.210000000000033715, 0.0000000000000000000 ) ) ;
#100 = LOCAL_TIME ( 13, 57, 16.00000000000000000, #180 ) ;
#101 = CYLINDRICAL_SURFACE ( 'NONE', #230, 1.999999999999996669 ) ;
#102 = DIRECTION ( 'NONE',  ( 3.491481338843133355E-15, -1.224646799147353207E-16, 1.000000000000000000 ) ) ;
#103 = PERSON_AND_ORGANIZATION_ROLE ( 'classification_officer' ) ;
#104 = EDGE_CURVE ( 'NONE', #174, #174, #167, .T. ) ;
#105 = AXIS2_PLACEMENT_3D ( 'NONE', #217, #102, #239 ) ;
#106 = PERSON_AND_ORGANIZATION ( #64, #133 ) ;
#107 = APPROVAL ( #182, 'UNSPECIFIED' ) ;
#108 = PRODUCT_DEFINITION_SHAPE ( 'NONE', 'NONE',  #240 ) ;
#109 = SHAPE_DEFINITION_REPRESENTATION ( #108, #159 ) ;
#110 = AXIS2_PLACEMENT_3D ( 'NONE', #70, #71, #148 ) ;
#111 = CARTESIAN_POINT ( 'NONE',  ( 2.779219145719134403E-13, -9.748188521212932624E-15, 79.60000000000000853 ) ) ;
#112 = CC_DESIGN_PERSON_AND_ORGANIZATION_ASSIGNMENT ( #149, #74, ( #18 ) ) ;
#113 = ORIENTED_EDGE ( 'NONE', *, *, #66, .F. ) ;
#114 = AXIS2_PLACEMENT_3D ( 'NONE', #111, #95, #39 ) ;
#115 = CARTESIAN_POINT ( 'NONE',  ( 1.396592535537251370E-15, -4.898587196589405680E-17, 0.3999999999999994116 ) ) ;
#116 = FACE_BOUND ( 'NONE', #55, .T. ) ;
#117 = ADVANCED_FACE ( 'NONE', ( #187 ), #1, .T. ) ;
#118 = MANIFOLD_SOLID_BREP ( 'Corps-Déplacer/Copier1[2]', #79 ) ;
#119 = FACE_OUTER_BOUND ( 'NONE', #13, .T. ) ;
#120 = CC_DESIGN_APPROVAL ( #107, ( #84 ) ) ;
#121 = CARTESIAN_POINT ( 'NONE',  ( 4.189777606611760026E-14, -1.469576158976823947E-15, 12.00000000000000000 ) ) ;
#122 = CARTESIAN_POINT ( 'NONE',  ( 0.0000000000000000000, 0.0000000000000000000, 0.0000000000000000000 ) ) ;
#123 = MECHANICAL_CONTEXT ( 'NONE', #207, 'mechanical' ) ;
#124 = CONICAL_SURFACE ( 'NONE', #151, 1.600000000000000977, 0.7853981633974512766 ) ;
#125 = EDGE_LOOP ( 'NONE', ( #172 ) ) ;
#126 = EDGE_CURVE ( 'NONE', #47, #47, #46, .T. ) ;
#127 = CALENDAR_DATE ( 2021, 2, 12 ) ;
#128 = APPROVAL_PERSON_ORGANIZATION ( #106, #62, #201 ) ;
#129 = PERSON_AND_ORGANIZATION ( #64, #133 ) ;
#130 = AXIS2_PLACEMENT_3D ( 'NONE', #93, #92, #23 ) ;
#131 = FACE_BOUND ( 'NONE', #132, .T. ) ;
#132 = EDGE_LOOP ( 'NONE', ( #89 ) ) ;
#133 = ORGANIZATION ( 'UNSPECIFIED', 'UNSPECIFIED', '' ) ;
#134 = CYLINDRICAL_SURFACE ( 'NONE', #171, 2.610000000000034959 ) ;
#135 = FACE_OUTER_BOUND ( 'NONE', #50, .T. ) ;
#136 = AXIS2_PLACEMENT_3D ( 'NONE', #12, #154, #194 ) ;
#137 = PERSON_AND_ORGANIZATION ( #64, #133 ) ;
#138 = CC_DESIGN_DATE_AND_TIME_ASSIGNMENT ( #165, #146, ( #84 ) ) ;
#139 = VERTEX_POINT ( 'NONE', #45 ) ;
#140 = CARTESIAN_POINT ( 'NONE',  ( 0.0000000000000000000, 0.0000000000000000000, 0.0000000000000000000 ) ) ;
#141 = CARTESIAN_POINT ( 'NONE',  ( 4.558670414037634487E-14, 1.999999999999990452, 13.05655099261708507 ) ) ;
#142 = EDGE_CURVE ( 'NONE', #139, #139, #88, .T. ) ;
#143 = AXIS2_PLACEMENT_3D ( 'NONE', #43, #157, #29 ) ;
#144 = COORDINATED_UNIVERSAL_TIME_OFFSET ( 1, 0, .AHEAD. ) ;
#145 = APPROVAL_ROLE ( '' ) ;
#146 = DATE_TIME_ROLE ( 'classification_date' ) ;
#147 = EDGE_LOOP ( 'NONE', ( #210 ) ) ;
#148 = DIRECTION ( 'NONE',  ( 0.0000000000000000000, 1.000000000000000000, 0.0000000000000000000 ) ) ;
#149 = PERSON_AND_ORGANIZATION ( #64, #133 ) ;
#150 = CARTESIAN_POINT ( 'NONE',  ( 2.793185071074506684E-13, -9.797174393178826052E-15, 80.00000000000000000 ) ) ;
#151 = AXIS2_PLACEMENT_3D ( 'NONE', #150, #209, #190 ) ;
#152 = PLANE ( 'NONE',  #130 ) ;
#153 = EDGE_LOOP ( 'NONE', ( #54 ) ) ;
#154 = DIRECTION ( 'NONE',  ( 3.491481338843133355E-15, -1.224646799147353207E-16, 1.000000000000000000 ) ) ;
#155 = CC_DESIGN_DATE_AND_TIME_ASSIGNMENT ( #198, #179, ( #240 ) ) ;
#156 = AXIS2_PLACEMENT_3D ( 'NONE', #121, #177, #158 ) ;
#157 = DIRECTION ( 'NONE',  ( -3.491481338843133355E-15, 1.224646799147353207E-16, -1.000000000000000000 ) ) ;
#158 = DIRECTION ( 'NONE',  ( 0.0000000000000000000, 1.000000000000000000, 0.0000000000000000000 ) ) ;
#159 = ADVANCED_BREP_SHAPE_REPRESENTATION ( '321748', ( #196, #118, #192 ), #63 ) ;
#160 = ADVANCED_FACE ( 'NONE', ( #161 ), #173, .F. ) ;
#161 = FACE_OUTER_BOUND ( 'NONE', #228, .T. ) ;
#162 = ORIENTED_EDGE ( 'NONE', *, *, #104, .T. ) ;
#163 = ORIENTED_EDGE ( 'NONE', *, *, #126, .F. ) ;
#164 = PERSON_AND_ORGANIZATION ( #64, #133 ) ;
#165 = DATE_AND_TIME ( #15, #3 ) ;
#166 = FACE_BOUND ( 'NONE', #125, .T. ) ;
#167 = CIRCLE ( 'NONE', #114, 2.000000000000000888 ) ;
#168 = DIRECTION ( 'NONE',  ( 0.0000000000000000000, 1.000000000000000000, 0.0000000000000000000 ) ) ;
#169 = ORIENTED_EDGE ( 'NONE', *, *, #142, .F. ) ;
#170 = ORIENTED_EDGE ( 'NONE', *, *, #218, .T. ) ;
#171 = AXIS2_PLACEMENT_3D ( 'NONE', #72, #19, #52 ) ;
#172 = ORIENTED_EDGE ( 'NONE', *, *, #231, .T. ) ;
#173 = PLANE ( 'NONE',  #105 ) ;
#174 = VERTEX_POINT ( 'NONE', #97 ) ;
#175 = LOCAL_TIME ( 13, 57, 16.00000000000000000, #35 ) ;
#176 = FACE_OUTER_BOUND ( 'NONE', #188, .T. ) ;
#177 = DIRECTION ( 'NONE',  ( -3.491481338843133355E-15, 1.224646799147353207E-16, -1.000000000000000000 ) ) ;
#178 = PERSON_AND_ORGANIZATION ( #64, #133 ) ;
#179 = DATE_TIME_ROLE ( 'creation_date' ) ;
#180 = COORDINATED_UNIVERSAL_TIME_OFFSET ( 1, 0, .AHEAD. ) ;
#181 = CC_DESIGN_PERSON_AND_ORGANIZATION_ASSIGNMENT ( #164, #103, ( #84 ) ) ;
#182 = APPROVAL_STATUS ( 'not_yet_approved' ) ;
#183 = PRODUCT_RELATED_PRODUCT_CATEGORY ( 'detail', '', ( #18 ) ) ;
#184 = PERSON_AND_ORGANIZATION_ROLE ( 'creator' ) ;
#185 = CONICAL_SURFACE ( 'NONE', #216, 2.210000000000033715, 0.7853981633974504994 ) ;
#186 = ADVANCED_FACE ( 'NONE', ( #135, #176 ), #101, .T. ) ;
#187 = FACE_OUTER_BOUND ( 'NONE', #31, .T. ) ;
#188 = EDGE_LOOP ( 'NONE', ( #162 ) ) ;
#189 = EDGE_LOOP ( 'NONE', ( #113 ) ) ;
#190 = DIRECTION ( 'NONE',  ( 0.0000000000000000000, 1.000000000000000000, 0.0000000000000000000 ) ) ;
#191 = FACE_OUTER_BOUND ( 'NONE', #232, .T. ) ;
#192 = AXIS2_PLACEMENT_3D ( 'NONE', #140, #214, #44 ) ;
#193 = FACE_OUTER_BOUND ( 'NONE', #229, .T. ) ;
#194 = DIRECTION ( 'NONE',  ( -4.275831445896958607E-31, -1.000000000000000000, -1.224646799147353207E-16 ) ) ;
#195 = ORIENTED_EDGE ( 'NONE', *, *, #199, .T. ) ;
#196 = MANIFOLD_SOLID_BREP ( 'Corps-Déplacer/Copier1[1]', #16 ) ;
#197 = VERTEX_POINT ( 'NONE', #237 ) ;
#198 = DATE_AND_TIME ( #127, #40 ) ;
#199 = EDGE_CURVE ( 'NONE', #9, #9, #11, .T. ) ;
#200 = CALENDAR_DATE ( 2021, 2, 12 ) ;
#201 = APPROVAL_ROLE ( '' ) ;
#202 = DATE_AND_TIME ( #200, #96 ) ;
#203 = DIRECTION ( 'NONE',  ( -3.491481338843133355E-15, 1.224646799147353207E-16, -1.000000000000000000 ) ) ;
#204 = CARTESIAN_POINT ( 'NONE',  ( 4.189777606611760026E-14, -1.469576158976823947E-15, 12.00000000000000000 ) ) ;
#205 = CARTESIAN_POINT ( 'NONE',  ( 2.793185071074506684E-13, -9.797174393178826052E-15, 80.00000000000000000 ) ) ;
#206 = APPROVAL_PERSON_ORGANIZATION ( #137, #17, #61 ) ;
#207 = APPLICATION_CONTEXT ( 'configuration controlled 3d designs of mechanical parts and assemblies' ) ;
#208 = UNCERTAINTY_MEASURE_WITH_UNIT (LENGTH_MEASURE( 1.000000000000000082E-05 ), #32, 'distance_accuracy_value', 'NONE');
#209 = DIRECTION ( 'NONE',  ( -3.491481338843133355E-15, 1.224646799147353207E-16, -1.000000000000000000 ) ) ;
#210 = ORIENTED_EDGE ( 'NONE', *, *, #199, .F. ) ;
#211 = ADVANCED_FACE ( 'NONE', ( #193 ), #56, .T. ) ;
#212 = CC_DESIGN_APPROVAL ( #62, ( #24 ) ) ;
#213 = APPLICATION_CONTEXT ( 'configuration controlled 3d designs of mechanical parts and assemblies' ) ;
#214 = DIRECTION ( 'NONE',  ( 0.0000000000000000000, 0.0000000000000000000, 1.000000000000000000 ) ) ;
#215 = CARTESIAN_POINT ( 'NONE',  ( 4.558670414037634487E-14, -1.598966338101271060E-15, 13.05655099261708507 ) ) ;
#216 = AXIS2_PLACEMENT_3D ( 'NONE', #37, #8, #6 ) ;
#217 = CARTESIAN_POINT ( 'NONE',  ( 4.189777606611760026E-14, 1.957186516373748591E-32, 12.00000000000000000 ) ) ;
#218 = EDGE_CURVE ( 'NONE', #78, #78, #7, .T. ) ;
#219 = APPROVAL_DATE_TIME ( #83, #107 ) ;
#220 = SECURITY_CLASSIFICATION_LEVEL ( 'unclassified' ) ;
#221 = AXIS2_PLACEMENT_3D ( 'NONE', #205, #20, #168 ) ;
#222 = PERSON_AND_ORGANIZATION_ROLE ( 'creator' ) ;
#223 = CALENDAR_DATE ( 2021, 2, 12 ) ;
#224 = DESIGN_CONTEXT ( 'detailed design', #213, 'design' ) ;
#225 = APPROVAL_PERSON_ORGANIZATION ( #129, #107, #145 ) ;
#226 = FACE_OUTER_BOUND ( 'NONE', #38, .T. ) ;
#227 = CC_DESIGN_PERSON_AND_ORGANIZATION_ASSIGNMENT ( #241, #87, ( #24 ) ) ;
#228 = EDGE_LOOP ( 'NONE', ( #195 ) ) ;
#229 = EDGE_LOOP ( 'NONE', ( #163 ) ) ;
#230 = AXIS2_PLACEMENT_3D ( 'NONE', #122, #77, #58 ) ;
#231 = EDGE_CURVE ( 'NONE', #80, #80, #59, .T. ) ;
#232 = EDGE_LOOP ( 'NONE', ( #22 ) ) ;
#233 = APPLICATION_PROTOCOL_DEFINITION ( 'international standard', 'config_control_design', 1994, #213 ) ;
#234 = FACE_OUTER_BOUND ( 'NONE', #147, .T. ) ;
#235 = CARTESIAN_POINT ( 'NONE',  ( 4.189777606611760026E-14, 2.610000000000033626, 12.00000000000000000 ) ) ;
#236 =( NAMED_UNIT ( * ) SI_UNIT ( $, .STERADIAN. ) SOLID_ANGLE_UNIT ( ) );
#237 = CARTESIAN_POINT ( 'NONE',  ( 2.793185071074506684E-13, 1.599999999999991207, 80.00000000000000000 ) ) ;
#238 = CC_DESIGN_APPROVAL ( #17, ( #240 ) ) ;
#239 = DIRECTION ( 'NONE',  ( -4.275831445896958607E-31, -1.000000000000000000, -1.224646799147353207E-16 ) ) ;
#240 = PRODUCT_DEFINITION ( 'UNKNOWN', '', #24, #224 ) ;
#241 = PERSON_AND_ORGANIZATION ( #64, #133 ) ;
#242 = AXIS2_PLACEMENT_3D ( 'NONE', #204, #203, #76 ) ;
#243 = PERSON_AND_ORGANIZATION ( #64, #133 ) ;
ENDSEC;
END-ISO-10303-21;
