ISO-10303-21;
HEADER;
FILE_DESCRIPTION (( 'STEP AP203' ),
    '1' );
FILE_NAME ('321747.step',
    '2021-12-02T12:57:15',
    ( '' ),
    ( '' ),
    'SwSTEP 2.0',
    'SolidWorks 2019',
    '' );
FILE_SCHEMA (( 'CONFIG_CONTROL_DESIGN' ));
ENDSEC;

DATA;
#1 = AXIS2_PLACEMENT_3D ( 'NONE', #2, #74, #148 ) ;
#2 = CARTESIAN_POINT ( 'NONE',  ( 2.793185071074506684E-13, 1.199807826129472128E-32, 80.00000000000000000 ) ) ;
#3 = PLANE ( 'NONE',  #131 ) ;
#4 = DIRECTION ( 'NONE',  ( -4.275831445896958607E-31, -1.000000000000000000, -1.224646799147353207E-16 ) ) ;
#5 = VERTEX_POINT ( 'NONE', #192 ) ;
#6 = DIRECTION ( 'NONE',  ( 0.0000000000000000000, 0.0000000000000000000, 1.000000000000000000 ) ) ;
#7 = PERSON_AND_ORGANIZATION ( #242, #31 ) ;
#8 = CC_DESIGN_PERSON_AND_ORGANIZATION_ASSIGNMENT ( #139, #204, ( #21 ) ) ;
#9 = APPLICATION_PROTOCOL_DEFINITION ( 'international standard', 'config_control_design', 1994, #226 ) ;
#10 = APPROVAL_ROLE ( '' ) ;
#11 = PLANE ( 'NONE',  #103 ) ;
#12 = ORIENTED_EDGE ( 'NONE', *, *, #138, .T. ) ;
#13 = ADVANCED_FACE ( 'NONE', ( #196 ), #11, .T. ) ;
#14 = EDGE_LOOP ( 'NONE', ( #158 ) ) ;
#15 = EDGE_CURVE ( 'NONE', #5, #5, #100, .T. ) ;
#16 = SECURITY_CLASSIFICATION_LEVEL ( 'unclassified' ) ;
#17 = ORIENTED_EDGE ( 'NONE', *, *, #236, .F. ) ;
#18 = AXIS2_PLACEMENT_3D ( 'NONE', #200, #37, #4 ) ;
#19 = CYLINDRICAL_SURFACE ( 'NONE', #169, 2.605000000000035065 ) ;
#20 = CARTESIAN_POINT ( 'NONE',  ( 4.189777606611760026E-14, 1.953437116917094194E-32, 12.00000000000000000 ) ) ;
#21 = PRODUCT_DEFINITION ( 'UNKNOWN', '', #71, #221 ) ;
#22 = DIRECTION ( 'NONE',  ( 0.0000000000000000000, 1.000000000000000000, 0.0000000000000000000 ) ) ;
#23 = APPROVAL_PERSON_ORGANIZATION ( #118, #198, #10 ) ;
#24 = DIRECTION ( 'NONE',  ( 4.275831445896958607E-31, 1.000000000000000000, 1.224646799147353207E-16 ) ) ;
#25 = DIRECTION ( 'NONE',  ( 0.0000000000000000000, 1.000000000000000000, 0.0000000000000000000 ) ) ;
#26 = EDGE_CURVE ( 'NONE', #168, #168, #179, .T. ) ;
#27 = APPROVAL_ROLE ( '' ) ;
#28 = VERTEX_POINT ( 'NONE', #29 ) ;
#29 = CARTESIAN_POINT ( 'NONE',  ( 0.0000000000000000000, 2.205000000000033822, 0.0000000000000000000 ) ) ;
#30 = DIRECTION ( 'NONE',  ( 1.000000000000000000, 0.0000000000000000000, 0.0000000000000000000 ) ) ;
#31 = ORGANIZATION ( 'UNSPECIFIED', 'UNSPECIFIED', '' ) ;
#32 = MANIFOLD_SOLID_BREP ( 'Corps-Déplacer/Copier1[2]', #188 ) ;
#33 = DATE_AND_TIME ( #99, #55 ) ;
#34 = COORDINATED_UNIVERSAL_TIME_OFFSET ( 1, 0, .AHEAD. ) ;
#35 = ORIENTED_EDGE ( 'NONE', *, *, #138, .F. ) ;
#36 = CARTESIAN_POINT ( 'NONE',  ( 0.0000000000000000000, 0.0000000000000000000, 0.0000000000000000000 ) ) ;
#37 = DIRECTION ( 'NONE',  ( 3.491481338843133355E-15, -1.224646799147353207E-16, 1.000000000000000000 ) ) ;
#38 = ADVANCED_FACE ( 'NONE', ( #227, #167 ), #19, .T. ) ;
#39 = CARTESIAN_POINT ( 'NONE',  ( 2.779219145719134403E-13, -9.748188521212932624E-15, 79.60000000000000853 ) ) ;
#40 = CC_DESIGN_APPROVAL ( #152, ( #21 ) ) ;
#41 = FACE_BOUND ( 'NONE', #56, .T. ) ;
#42 = DIRECTION ( 'NONE',  ( 3.491481338843133355E-15, -1.224646799147353207E-16, 1.000000000000000000 ) ) ;
#43 = COORDINATED_UNIVERSAL_TIME_OFFSET ( 1, 0, .AHEAD. ) ;
#44 = AXIS2_PLACEMENT_3D ( 'NONE', #150, #72, #201 ) ;
#45 = VERTEX_POINT ( 'NONE', #112 ) ;
#46 = EDGE_CURVE ( 'NONE', #191, #191, #83, .T. ) ;
#47 = APPLICATION_CONTEXT ( 'configuration controlled 3d designs of mechanical parts and assemblies' ) ;
#48 = APPROVAL_STATUS ( 'not_yet_approved' ) ;
#49 = SHAPE_DEFINITION_REPRESENTATION ( #140, #96 ) ;
#50 =( GEOMETRIC_REPRESENTATION_CONTEXT ( 3 ) GLOBAL_UNCERTAINTY_ASSIGNED_CONTEXT ( ( #91 ) ) GLOBAL_UNIT_ASSIGNED_CONTEXT ( ( #153, #155, #230 ) ) REPRESENTATION_CONTEXT ( 'NONE', 'WORKASPACE' ) );
#51 = EDGE_LOOP ( 'NONE', ( #238 ) ) ;
#52 = ORIENTED_EDGE ( 'NONE', *, *, #15, .F. ) ;
#53 = CIRCLE ( 'NONE', #109, 2.205000000000033822 ) ;
#54 = ORIENTED_EDGE ( 'NONE', *, *, #26, .T. ) ;
#55 = LOCAL_TIME ( 13, 57, 15.00000000000000000, #34 ) ;
#56 = EDGE_LOOP ( 'NONE', ( #144 ) ) ;
#57 = EDGE_LOOP ( 'NONE', ( #194 ) ) ;
#58 = CYLINDRICAL_SURFACE ( 'NONE', #97, 1.999999999999996669 ) ;
#59 = FACE_OUTER_BOUND ( 'NONE', #160, .T. ) ;
#60 = DIRECTION ( 'NONE',  ( -4.275831445896958607E-31, -1.000000000000000000, -1.224646799147353207E-16 ) ) ;
#61 = DIRECTION ( 'NONE',  ( 3.491481338843133355E-15, -1.224646799147353207E-16, 1.000000000000000000 ) ) ;
#62 = CARTESIAN_POINT ( 'NONE',  ( 2.793185071074506684E-13, -9.797174393178826052E-15, 80.00000000000000000 ) ) ;
#63 = PERSON_AND_ORGANIZATION ( #242, #31 ) ;
#64 = COORDINATED_UNIVERSAL_TIME_OFFSET ( 1, 0, .AHEAD. ) ;
#65 = AXIS2_PLACEMENT_3D ( 'NONE', #110, #185, #25 ) ;
#66 = DATE_TIME_ROLE ( 'creation_date' ) ;
#67 = CALENDAR_DATE ( 2021, 2, 12 ) ;
#68 = APPROVAL_DATE_TIME ( #234, #152 ) ;
#69 = AXIS2_PLACEMENT_3D ( 'NONE', #62, #133, #223 ) ;
#70 = PERSON_AND_ORGANIZATION_ROLE ( 'classification_officer' ) ;
#71 = PRODUCT_DEFINITION_FORMATION_WITH_SPECIFIED_SOURCE ( 'ANY', '', #132, .NOT_KNOWN. ) ;
#72 = DIRECTION ( 'NONE',  ( -3.491481338843133355E-15, 1.224646799147353207E-16, -1.000000000000000000 ) ) ;
#73 = DIRECTION ( 'NONE',  ( 0.0000000000000000000, 1.000000000000000000, 0.0000000000000000000 ) ) ;
#74 = DIRECTION ( 'NONE',  ( -3.491481338843133355E-15, 1.224646799147353207E-16, -1.000000000000000000 ) ) ;
#75 = CARTESIAN_POINT ( 'NONE',  ( -4.714104169101468816E-31, 1.653485160384723493E-32, -1.350173096059977649E-16 ) ) ;
#76 = FACE_OUTER_BOUND ( 'NONE', #57, .T. ) ;
#77 = APPLICATION_PROTOCOL_DEFINITION ( 'international standard', 'config_control_design', 1994, #47 ) ;
#78 = CALENDAR_DATE ( 2021, 2, 12 ) ;
#79 = VERTEX_POINT ( 'NONE', #232 ) ;
#80 = APPROVAL_STATUS ( 'not_yet_approved' ) ;
#81 = APPROVAL ( #48, 'UNSPECIFIED' ) ;
#82 = EDGE_LOOP ( 'NONE', ( #54 ) ) ;
#83 = CIRCLE ( 'NONE', #69, 1.600000000000000977 ) ;
#84 = EDGE_CURVE ( 'NONE', #79, #79, #197, .T. ) ;
#85 = CONICAL_SURFACE ( 'NONE', #220, 2.605000000000035065, 0.5235987755983001479 ) ;
#86 = CC_DESIGN_SECURITY_CLASSIFICATION ( #136, ( #71 ) ) ;
#87 = DIRECTION ( 'NONE',  ( 0.0000000000000000000, 1.000000000000000000, 0.0000000000000000000 ) ) ;
#88 = CARTESIAN_POINT ( 'NONE',  ( 0.0000000000000000000, 0.0000000000000000000, 0.0000000000000000000 ) ) ;
#89 = DIRECTION ( 'NONE',  ( -3.491481338843133355E-15, 1.224646799147353207E-16, -1.000000000000000000 ) ) ;
#90 = FACE_OUTER_BOUND ( 'NONE', #14, .T. ) ;
#91 = UNCERTAINTY_MEASURE_WITH_UNIT (LENGTH_MEASURE( 1.000000000000000082E-05 ), #153, 'distance_accuracy_value', 'NONE');
#92 = FACE_OUTER_BOUND ( 'NONE', #101, .T. ) ;
#93 = CARTESIAN_POINT ( 'NONE',  ( 4.189777606611760026E-14, 2.605000000000033733, 12.00000000000000000 ) ) ;
#94 = AXIS2_PLACEMENT_3D ( 'NONE', #203, #42, #129 ) ;
#95 = CC_DESIGN_APPROVAL ( #198, ( #136 ) ) ;
#96 = ADVANCED_BREP_SHAPE_REPRESENTATION ( '321747', ( #189, #32, #121 ), #50 ) ;
#97 = AXIS2_PLACEMENT_3D ( 'NONE', #36, #166, #24 ) ;
#98 = CC_DESIGN_PERSON_AND_ORGANIZATION_ASSIGNMENT ( #176, #122, ( #71 ) ) ;
#99 = CALENDAR_DATE ( 2021, 2, 12 ) ;
#100 = CIRCLE ( 'NONE', #151, 2.605000000000035065 ) ;
#101 = EDGE_LOOP ( 'NONE', ( #52 ) ) ;
#102 = EDGE_LOOP ( 'NONE', ( #35 ) ) ;
#103 = AXIS2_PLACEMENT_3D ( 'NONE', #20, #61, #60 ) ;
#104 = ORIENTED_EDGE ( 'NONE', *, *, #123, .F. ) ;
#105 = DIRECTION ( 'NONE',  ( 4.275831445896959482E-31, 1.000000000000000000, 1.224646799147353207E-16 ) ) ;
#106 = CARTESIAN_POINT ( 'NONE',  ( 1.396592535537251370E-15, -4.898587196589405680E-17, 0.3999999999999994116 ) ) ;
#107 = ADVANCED_FACE ( 'NONE', ( #145 ), #243, .F. ) ;
#108 = CARTESIAN_POINT ( 'NONE',  ( 4.555646702501357614E-14, -1.597905762862546410E-15, 13.04789073857924286 ) ) ;
#109 = AXIS2_PLACEMENT_3D ( 'NONE', #114, #187, #137 ) ;
#110 = CARTESIAN_POINT ( 'NONE',  ( 2.793185071074506684E-13, -9.797174393178826052E-15, 80.00000000000000000 ) ) ;
#111 = CALENDAR_DATE ( 2021, 2, 12 ) ;
#112 = CARTESIAN_POINT ( 'NONE',  ( 1.396592535537252553E-15, 2.605000000000035065, 0.3999999999999997446 ) ) ;
#113 = CIRCLE ( 'NONE', #146, 2.605000000000035065 ) ;
#114 = CARTESIAN_POINT ( 'NONE',  ( -9.428208338202937632E-31, 3.306970320769446987E-32, -2.700346192119955297E-16 ) ) ;
#115 = COORDINATED_UNIVERSAL_TIME_OFFSET ( 1, 0, .AHEAD. ) ;
#116 = AXIS2_PLACEMENT_3D ( 'NONE', #108, #181, #180 ) ;
#117 = CC_DESIGN_APPROVAL ( #81, ( #71 ) ) ;
#118 = PERSON_AND_ORGANIZATION ( #242, #31 ) ;
#119 = CC_DESIGN_DATE_AND_TIME_ASSIGNMENT ( #33, #159, ( #136 ) ) ;
#120 = EDGE_LOOP ( 'NONE', ( #177 ) ) ;
#121 = AXIS2_PLACEMENT_3D ( 'NONE', #172, #6, #30 ) ;
#122 = PERSON_AND_ORGANIZATION_ROLE ( 'creator' ) ;
#123 = EDGE_CURVE ( 'NONE', #228, #228, #125, .T. ) ;
#124 = ORIENTED_EDGE ( 'NONE', *, *, #46, .F. ) ;
#125 = CIRCLE ( 'NONE', #116, 1.999999999999992228 ) ;
#126 = DIRECTION ( 'NONE',  ( 4.435923096477259014E-31, 1.000000000000000000, 1.248601350271197530E-16 ) ) ;
#127 = ADVANCED_FACE ( 'NONE', ( #147, #92 ), #85, .T. ) ;
#128 = FACE_OUTER_BOUND ( 'NONE', #178, .T. ) ;
#129 = DIRECTION ( 'NONE',  ( -4.275831445896958607E-31, -1.000000000000000000, -1.224646799147353207E-16 ) ) ;
#130 = FACE_BOUND ( 'NONE', #215, .T. ) ;
#131 = AXIS2_PLACEMENT_3D ( 'NONE', #75, #149, #202 ) ;
#132 = PRODUCT ( '321747', '321747', '', ( #190 ) ) ;
#133 = DIRECTION ( 'NONE',  ( -3.491481338843133355E-15, 1.224646799147353207E-16, -1.000000000000000000 ) ) ;
#134 = PRODUCT_RELATED_PRODUCT_CATEGORY ( 'detail', '', ( #132 ) ) ;
#135 = APPROVAL_ROLE ( '' ) ;
#136 = SECURITY_CLASSIFICATION ( '', '', #16 ) ;
#137 = DIRECTION ( 'NONE',  ( 4.275831445896958607E-31, 1.000000000000000000, 1.224646799147353207E-16 ) ) ;
#138 = EDGE_CURVE ( 'NONE', #45, #45, #113, .T. ) ;
#139 = PERSON_AND_ORGANIZATION ( #242, #31 ) ;
#140 = PRODUCT_DEFINITION_SHAPE ( 'NONE', 'NONE',  #21 ) ;
#141 = ORIENTED_EDGE ( 'NONE', *, *, #26, .F. ) ;
#142 = PERSON_AND_ORGANIZATION ( #242, #31 ) ;
#143 = PERSON_AND_ORGANIZATION_ROLE ( 'design_supplier' ) ;
#144 = ORIENTED_EDGE ( 'NONE', *, *, #46, .T. ) ;
#145 = FACE_OUTER_BOUND ( 'NONE', #120, .T. ) ;
#146 = AXIS2_PLACEMENT_3D ( 'NONE', #106, #219, #126 ) ;
#147 = FACE_BOUND ( 'NONE', #51, .T. ) ;
#148 = DIRECTION ( 'NONE',  ( 4.275831445896958607E-31, 1.000000000000000000, 1.224646799147353207E-16 ) ) ;
#149 = DIRECTION ( 'NONE',  ( -3.491481338843133355E-15, 1.224646799147353207E-16, -1.000000000000000000 ) ) ;
#150 = CARTESIAN_POINT ( 'NONE',  ( 4.189777606611760026E-14, -1.469576158976823947E-15, 12.00000000000000000 ) ) ;
#151 = AXIS2_PLACEMENT_3D ( 'NONE', #224, #89, #73 ) ;
#152 = APPROVAL ( #80, 'UNSPECIFIED' ) ;
#153 =( LENGTH_UNIT ( ) NAMED_UNIT ( * ) SI_UNIT ( .MILLI., .METRE. ) );
#154 = ADVANCED_FACE ( 'NONE', ( #59, #241 ), #58, .T. ) ;
#155 =( NAMED_UNIT ( * ) PLANE_ANGLE_UNIT ( ) SI_UNIT ( $, .RADIAN. ) );
#156 = APPROVAL_PERSON_ORGANIZATION ( #63, #152, #135 ) ;
#157 = CARTESIAN_POINT ( 'NONE',  ( 4.555646702501357614E-14, 1.999999999999990452, 13.04789073857924286 ) ) ;
#158 = ORIENTED_EDGE ( 'NONE', *, *, #236, .T. ) ;
#159 = DATE_TIME_ROLE ( 'classification_date' ) ;
#160 = EDGE_LOOP ( 'NONE', ( #104 ) ) ;
#161 = LOCAL_TIME ( 13, 57, 15.00000000000000000, #115 ) ;
#162 = CALENDAR_DATE ( 2021, 2, 12 ) ;
#163 = DIRECTION ( 'NONE',  ( -3.491481338843133355E-15, 1.224646799147353207E-16, -1.000000000000000000 ) ) ;
#164 = ADVANCED_FACE ( 'NONE', ( #128, #130 ), #216, .T. ) ;
#165 = PLANE ( 'NONE',  #1 ) ;
#166 = DIRECTION ( 'NONE',  ( -3.491481338843133355E-15, 1.224646799147353207E-16, -1.000000000000000000 ) ) ;
#167 = FACE_OUTER_BOUND ( 'NONE', #102, .T. ) ;
#168 = VERTEX_POINT ( 'NONE', #93 ) ;
#169 = AXIS2_PLACEMENT_3D ( 'NONE', #88, #163, #105 ) ;
#170 = DATE_AND_TIME ( #111, #161 ) ;
#171 = ADVANCED_FACE ( 'NONE', ( #182 ), #165, .F. ) ;
#172 = CARTESIAN_POINT ( 'NONE',  ( 0.0000000000000000000, 0.0000000000000000000, 0.0000000000000000000 ) ) ;
#173 = LOCAL_TIME ( 13, 57, 15.00000000000000000, #64 ) ;
#174 = LOCAL_TIME ( 13, 57, 15.00000000000000000, #235 ) ;
#175 = CC_DESIGN_PERSON_AND_ORGANIZATION_ASSIGNMENT ( #193, #143, ( #71 ) ) ;
#176 = PERSON_AND_ORGANIZATION ( #242, #31 ) ;
#177 = ORIENTED_EDGE ( 'NONE', *, *, #15, .T. ) ;
#178 = EDGE_LOOP ( 'NONE', ( #12 ) ) ;
#179 = CIRCLE ( 'NONE', #44, 2.605000000000035065 ) ;
#180 = DIRECTION ( 'NONE',  ( 0.0000000000000000000, 1.000000000000000000, 0.0000000000000000000 ) ) ;
#181 = DIRECTION ( 'NONE',  ( -3.491481338843133355E-15, 1.224646799147353207E-16, -1.000000000000000000 ) ) ;
#182 = FACE_OUTER_BOUND ( 'NONE', #214, .T. ) ;
#183 = LOCAL_TIME ( 13, 57, 15.00000000000000000, #43 ) ;
#184 = DIRECTION ( 'NONE',  ( -3.491481338843133355E-15, 1.224646799147353207E-16, -1.000000000000000000 ) ) ;
#185 = DIRECTION ( 'NONE',  ( -3.491481338843133355E-15, 1.224646799147353207E-16, -1.000000000000000000 ) ) ;
#186 = CARTESIAN_POINT ( 'NONE',  ( 2.793185071074506684E-13, 1.599999999999991207, 80.00000000000000000 ) ) ;
#187 = DIRECTION ( 'NONE',  ( -3.491481338843133355E-15, 1.224646799147353207E-16, -1.000000000000000000 ) ) ;
#188 = CLOSED_SHELL ( 'NONE', ( #38, #13, #212, #164 ) ) ;
#189 = MANIFOLD_SOLID_BREP ( 'Corps-Déplacer/Copier1[1]', #207 ) ;
#190 = MECHANICAL_CONTEXT ( 'NONE', #47, 'mechanical' ) ;
#191 = VERTEX_POINT ( 'NONE', #186 ) ;
#192 = CARTESIAN_POINT ( 'NONE',  ( 4.189777606611760026E-14, 2.605000000000033733, 12.00000000000000000 ) ) ;
#193 = PERSON_AND_ORGANIZATION ( #242, #31 ) ;
#194 = ORIENTED_EDGE ( 'NONE', *, *, #84, .F. ) ;
#195 = EDGE_LOOP ( 'NONE', ( #141 ) ) ;
#196 = FACE_OUTER_BOUND ( 'NONE', #195, .T. ) ;
#197 = CIRCLE ( 'NONE', #225, 2.000000000000000888 ) ;
#198 = APPROVAL ( #213, 'UNSPECIFIED' ) ;
#199 = CARTESIAN_POINT ( 'NONE',  ( 4.189777606611760026E-14, -1.469576158976823947E-15, 12.00000000000000000 ) ) ;
#200 = CARTESIAN_POINT ( 'NONE',  ( -9.428208338202937632E-31, 3.306970320769446987E-32, -2.700346192119955297E-16 ) ) ;
#201 = DIRECTION ( 'NONE',  ( 0.0000000000000000000, 1.000000000000000000, 0.0000000000000000000 ) ) ;
#202 = DIRECTION ( 'NONE',  ( 4.275831445896958607E-31, 1.000000000000000000, 1.224646799147353207E-16 ) ) ;
#203 = CARTESIAN_POINT ( 'NONE',  ( 4.189777606611760026E-14, 1.953437116917094194E-32, 12.00000000000000000 ) ) ;
#204 = PERSON_AND_ORGANIZATION_ROLE ( 'creator' ) ;
#205 = CC_DESIGN_PERSON_AND_ORGANIZATION_ASSIGNMENT ( #142, #70, ( #136 ) ) ;
#206 = PERSON_AND_ORGANIZATION_ROLE ( 'design_owner' ) ;
#207 = CLOSED_SHELL ( 'NONE', ( #107, #127, #154, #233, #171 ) ) ;
#208 = DATE_AND_TIME ( #78, #173 ) ;
#209 = CC_DESIGN_DATE_AND_TIME_ASSIGNMENT ( #208, #66, ( #21 ) ) ;
#210 = PERSON_AND_ORGANIZATION ( #242, #31 ) ;
#211 = ORIENTED_EDGE ( 'NONE', *, *, #84, .T. ) ;
#212 = ADVANCED_FACE ( 'NONE', ( #90 ), #3, .T. ) ;
#213 = APPROVAL_STATUS ( 'not_yet_approved' ) ;
#214 = EDGE_LOOP ( 'NONE', ( #124 ) ) ;
#215 = EDGE_LOOP ( 'NONE', ( #17 ) ) ;
#216 = CONICAL_SURFACE ( 'NONE', #18, 2.205000000000033822, 0.7853981633974504994 ) ;
#217 = EDGE_LOOP ( 'NONE', ( #211 ) ) ;
#218 = CC_DESIGN_PERSON_AND_ORGANIZATION_ASSIGNMENT ( #7, #206, ( #132 ) ) ;
#219 = DIRECTION ( 'NONE',  ( -3.491481338843133355E-15, 1.224646799147353207E-16, -1.000000000000000000 ) ) ;
#220 = AXIS2_PLACEMENT_3D ( 'NONE', #199, #222, #22 ) ;
#221 = DESIGN_CONTEXT ( 'detailed design', #226, 'design' ) ;
#222 = DIRECTION ( 'NONE',  ( -3.491481338843133355E-15, 1.224646799147353207E-16, -1.000000000000000000 ) ) ;
#223 = DIRECTION ( 'NONE',  ( 0.0000000000000000000, 1.000000000000000000, 0.0000000000000000000 ) ) ;
#224 = CARTESIAN_POINT ( 'NONE',  ( 4.189777606611760026E-14, -1.469576158976823947E-15, 12.00000000000000000 ) ) ;
#225 = AXIS2_PLACEMENT_3D ( 'NONE', #39, #184, #87 ) ;
#226 = APPLICATION_CONTEXT ( 'configuration controlled 3d designs of mechanical parts and assemblies' ) ;
#227 = FACE_OUTER_BOUND ( 'NONE', #82, .T. ) ;
#228 = VERTEX_POINT ( 'NONE', #157 ) ;
#229 = APPROVAL_DATE_TIME ( #170, #81 ) ;
#230 =( NAMED_UNIT ( * ) SI_UNIT ( $, .STERADIAN. ) SOLID_ANGLE_UNIT ( ) );
#231 = CONICAL_SURFACE ( 'NONE', #65, 1.600000000000000977, 0.7853981633974512766 ) ;
#232 = CARTESIAN_POINT ( 'NONE',  ( 2.779219145719134403E-13, 1.999999999999991340, 79.60000000000000853 ) ) ;
#233 = ADVANCED_FACE ( 'NONE', ( #76, #41 ), #231, .T. ) ;
#234 = DATE_AND_TIME ( #67, #183 ) ;
#235 = COORDINATED_UNIVERSAL_TIME_OFFSET ( 1, 0, .AHEAD. ) ;
#236 = EDGE_CURVE ( 'NONE', #28, #28, #53, .T. ) ;
#237 = DATE_AND_TIME ( #162, #174 ) ;
#238 = ORIENTED_EDGE ( 'NONE', *, *, #123, .T. ) ;
#239 = APPROVAL_DATE_TIME ( #237, #198 ) ;
#240 = APPROVAL_PERSON_ORGANIZATION ( #210, #81, #27 ) ;
#241 = FACE_OUTER_BOUND ( 'NONE', #217, .T. ) ;
#242 = PERSON ( 'UNSPECIFIED', 'UNSPECIFIED', 'UNSPECIFIED', ('UNSPECIFIED'), ('UNSPECIFIED'), ('UNSPECIFIED') ) ;
#243 = PLANE ( 'NONE',  #94 ) ;
ENDSEC;
END-ISO-10303-21;
