ISO-10303-21;
HEADER;
FILE_DESCRIPTION (( 'STEP AP203' ),
    '1' );
FILE_NAME ('321746.step',
    '2021-12-02T12:57:14',
    ( '' ),
    ( '' ),
    'SwSTEP 2.0',
    'SolidWorks 2019',
    '' );
FILE_SCHEMA (( 'CONFIG_CONTROL_DESIGN' ));
ENDSEC;

DATA;
#1 = VERTEX_POINT ( 'NONE', #136 ) ;
#2 = FACE_OUTER_BOUND ( 'NONE', #44, .T. ) ;
#3 = FACE_OUTER_BOUND ( 'NONE', #7, .T. ) ;
#4 = ADVANCED_FACE ( 'NONE', ( #165 ), #218, .F. ) ;
#5 = EDGE_LOOP ( 'NONE', ( #65 ) ) ;
#6 = PERSON_AND_ORGANIZATION ( #108, #120 ) ;
#7 = EDGE_LOOP ( 'NONE', ( #156 ) ) ;
#8 = ORIENTED_EDGE ( 'NONE', *, *, #229, .T. ) ;
#9 = PERSON_AND_ORGANIZATION_ROLE ( 'design_supplier' ) ;
#10 = PRODUCT_DEFINITION_FORMATION_WITH_SPECIFIED_SOURCE ( 'ANY', '', #148, .NOT_KNOWN. ) ;
#11 = PERSON_AND_ORGANIZATION_ROLE ( 'creator' ) ;
#12 = EDGE_CURVE ( 'NONE', #208, #208, #82, .T. ) ;
#13 = CARTESIAN_POINT ( 'NONE',  ( -4.703414590486726459E-31, 1.649735760928068548E-32, -1.347111479062108964E-16 ) ) ;
#14 = CC_DESIGN_PERSON_AND_ORGANIZATION_ASSIGNMENT ( #48, #11, ( #10 ) ) ;
#15 = CALENDAR_DATE ( 2021, 2, 12 ) ;
#16 = CARTESIAN_POINT ( 'NONE',  ( 4.189777606611760026E-14, 2.600000000000033840, 12.00000000000000000 ) ) ;
#17 =( GEOMETRIC_REPRESENTATION_CONTEXT ( 3 ) GLOBAL_UNCERTAINTY_ASSIGNED_CONTEXT ( ( #185 ) ) GLOBAL_UNIT_ASSIGNED_CONTEXT ( ( #60, #59, #207 ) ) REPRESENTATION_CONTEXT ( 'NONE', 'WORKASPACE' ) );
#18 = DESIGN_CONTEXT ( 'detailed design', #239, 'design' ) ;
#19 = CARTESIAN_POINT ( 'NONE',  ( 2.793185071074506684E-13, 1.599999999999991207, 80.00000000000000000 ) ) ;
#20 = ADVANCED_FACE ( 'NONE', ( #39, #2 ), #210, .T. ) ;
#21 = DIRECTION ( 'NONE',  ( -4.275831445896958607E-31, -1.000000000000000000, -1.224646799147353207E-16 ) ) ;
#22 = PERSON_AND_ORGANIZATION ( #108, #120 ) ;
#23 = ORIENTED_EDGE ( 'NONE', *, *, #184, .F. ) ;
#24 = CC_DESIGN_APPROVAL ( #51, ( #187 ) ) ;
#25 = FACE_OUTER_BOUND ( 'NONE', #140, .T. ) ;
#26 = CC_DESIGN_PERSON_AND_ORGANIZATION_ASSIGNMENT ( #142, #9, ( #10 ) ) ;
#27 = MANIFOLD_SOLID_BREP ( 'Corps-Déplacer/Copier1[1]', #240 ) ;
#28 = DIRECTION ( 'NONE',  ( 3.491481338843133355E-15, -1.224646799147353207E-16, 1.000000000000000000 ) ) ;
#29 = DATE_AND_TIME ( #195, #183 ) ;
#30 = CIRCLE ( 'NONE', #101, 2.000000000000000888 ) ;
#31 = MANIFOLD_SOLID_BREP ( 'Corps-Déplacer/Copier1[2]', #115 ) ;
#32 = CARTESIAN_POINT ( 'NONE',  ( 2.793185071074506684E-13, -9.797174393178826052E-15, 80.00000000000000000 ) ) ;
#33 = DIRECTION ( 'NONE',  ( -3.491481338843133355E-15, 1.224646799147353207E-16, -1.000000000000000000 ) ) ;
#34 = CONICAL_SURFACE ( 'NONE', #164, 2.600000000000035172, 0.5235987755983003700 ) ;
#35 = LOCAL_TIME ( 13, 57, 14.00000000000000000, #174 ) ;
#36 = EDGE_CURVE ( 'NONE', #121, #121, #147, .T. ) ;
#37 = VERTEX_POINT ( 'NONE', #153 ) ;
#38 = PERSON_AND_ORGANIZATION ( #108, #120 ) ;
#39 = FACE_OUTER_BOUND ( 'NONE', #5, .T. ) ;
#40 = MECHANICAL_CONTEXT ( 'NONE', #76, 'mechanical' ) ;
#41 = ADVANCED_FACE ( 'NONE', ( #25 ), #94, .T. ) ;
#42 = PERSON_AND_ORGANIZATION_ROLE ( 'design_owner' ) ;
#43 = COORDINATED_UNIVERSAL_TIME_OFFSET ( 1, 0, .AHEAD. ) ;
#44 = EDGE_LOOP ( 'NONE', ( #212 ) ) ;
#45 = DIRECTION ( 'NONE',  ( -3.491481338843133355E-15, 1.224646799147353207E-16, -1.000000000000000000 ) ) ;
#46 = EDGE_CURVE ( 'NONE', #81, #81, #175, .T. ) ;
#47 = CARTESIAN_POINT ( 'NONE',  ( -9.406829180973452918E-31, 3.299471521856137096E-32, -2.694222958124217929E-16 ) ) ;
#48 = PERSON_AND_ORGANIZATION ( #108, #120 ) ;
#49 = DIRECTION ( 'NONE',  ( -3.491481338843133355E-15, 1.224646799147353207E-16, -1.000000000000000000 ) ) ;
#50 = DIRECTION ( 'NONE',  ( 0.0000000000000000000, 1.000000000000000000, 0.0000000000000000000 ) ) ;
#51 = APPROVAL ( #196, 'UNSPECIFIED' ) ;
#52 = PRODUCT_DEFINITION_SHAPE ( 'NONE', 'NONE',  #118 ) ;
#53 = ORIENTED_EDGE ( 'NONE', *, *, #229, .F. ) ;
#54 = DIRECTION ( 'NONE',  ( -3.491481338843133355E-15, 1.224646799147353207E-16, -1.000000000000000000 ) ) ;
#55 = DIRECTION ( 'NONE',  ( -3.491481338843133355E-15, 1.224646799147353207E-16, -1.000000000000000000 ) ) ;
#56 = AXIS2_PLACEMENT_3D ( 'NONE', #141, #145, #93 ) ;
#57 = APPROVAL_PERSON_ORGANIZATION ( #193, #67, #180 ) ;
#58 = EDGE_LOOP ( 'NONE', ( #23 ) ) ;
#59 =( NAMED_UNIT ( * ) PLANE_ANGLE_UNIT ( ) SI_UNIT ( $, .RADIAN. ) );
#60 =( LENGTH_UNIT ( ) NAMED_UNIT ( * ) SI_UNIT ( .MILLI., .METRE. ) );
#61 = CARTESIAN_POINT ( 'NONE',  ( 2.779219145719134403E-13, -9.748188521212932624E-15, 79.60000000000000853 ) ) ;
#62 = APPROVAL_STATUS ( 'not_yet_approved' ) ;
#63 = CALENDAR_DATE ( 2021, 2, 12 ) ;
#64 = CIRCLE ( 'NONE', #77, 2.600000000000035172 ) ;
#65 = ORIENTED_EDGE ( 'NONE', *, *, #36, .F. ) ;
#66 = ORIENTED_EDGE ( 'NONE', *, *, #222, .T. ) ;
#67 = APPROVAL ( #98, 'UNSPECIFIED' ) ;
#68 = AXIS2_PLACEMENT_3D ( 'NONE', #13, #55, #110 ) ;
#69 = CYLINDRICAL_SURFACE ( 'NONE', #166, 2.600000000000035172 ) ;
#70 = CONICAL_SURFACE ( 'NONE', #113, 2.200000000000033484, 0.7853981633974504994 ) ;
#71 = DIRECTION ( 'NONE',  ( 0.0000000000000000000, 1.000000000000000000, 0.0000000000000000000 ) ) ;
#72 = DIRECTION ( 'NONE',  ( 3.491481338843133355E-15, -1.224646799147353207E-16, 1.000000000000000000 ) ) ;
#73 = CC_DESIGN_PERSON_AND_ORGANIZATION_ASSIGNMENT ( #225, #42, ( #148 ) ) ;
#74 = DIRECTION ( 'NONE',  ( 4.275831445896958607E-31, 1.000000000000000000, 1.224646799147353207E-16 ) ) ;
#75 = DIRECTION ( 'NONE',  ( -3.491481338843133355E-15, 1.224646799147353207E-16, -1.000000000000000000 ) ) ;
#76 = APPLICATION_CONTEXT ( 'configuration controlled 3d designs of mechanical parts and assemblies' ) ;
#77 = AXIS2_PLACEMENT_3D ( 'NONE', #79, #99, #122 ) ;
#78 = FACE_OUTER_BOUND ( 'NONE', #58, .T. ) ;
#79 = CARTESIAN_POINT ( 'NONE',  ( 1.396592535537251370E-15, -4.898587196589405680E-17, 0.3999999999999994116 ) ) ;
#80 = CARTESIAN_POINT ( 'NONE',  ( 0.0000000000000000000, 0.0000000000000000000, 0.0000000000000000000 ) ) ;
#81 = VERTEX_POINT ( 'NONE', #168 ) ;
#82 = CIRCLE ( 'NONE', #123, 1.600000000000000977 ) ;
#83 = FACE_OUTER_BOUND ( 'NONE', #89, .T. ) ;
#84 = DIRECTION ( 'NONE',  ( -3.491481338843133355E-15, 1.224646799147353207E-16, -1.000000000000000000 ) ) ;
#85 = ADVANCED_FACE ( 'NONE', ( #132, #182 ), #70, .T. ) ;
#86 = ORIENTED_EDGE ( 'NONE', *, *, #133, .T. ) ;
#87 = DIRECTION ( 'NONE',  ( 4.275831445896958607E-31, 1.000000000000000000, 1.224646799147352961E-16 ) ) ;
#88 = COORDINATED_UNIVERSAL_TIME_OFFSET ( 1, 0, .AHEAD. ) ;
#89 = EDGE_LOOP ( 'NONE', ( #53 ) ) ;
#90 = CALENDAR_DATE ( 2021, 2, 12 ) ;
#91 = CC_DESIGN_DATE_AND_TIME_ASSIGNMENT ( #139, #126, ( #118 ) ) ;
#92 = FACE_BOUND ( 'NONE', #234, .T. ) ;
#93 = DIRECTION ( 'NONE',  ( 4.275831445896958607E-31, 1.000000000000000000, 1.224646799147353207E-16 ) ) ;
#94 = PLANE ( 'NONE',  #186 ) ;
#95 = ADVANCED_FACE ( 'NONE', ( #92, #173 ), #34, .T. ) ;
#96 = LOCAL_TIME ( 13, 57, 14.00000000000000000, #154 ) ;
#97 = DIRECTION ( 'NONE',  ( 0.0000000000000000000, 1.000000000000000000, 0.0000000000000000000 ) ) ;
#98 = APPROVAL_STATUS ( 'not_yet_approved' ) ;
#99 = DIRECTION ( 'NONE',  ( -3.491481338843133355E-15, 1.224646799147353207E-16, -1.000000000000000000 ) ) ;
#100 = APPLICATION_PROTOCOL_DEFINITION ( 'international standard', 'config_control_design', 1994, #239 ) ;
#101 = AXIS2_PLACEMENT_3D ( 'NONE', #61, #45, #97 ) ;
#102 = CARTESIAN_POINT ( 'NONE',  ( 2.793185071074506684E-13, -9.797174393178826052E-15, 80.00000000000000000 ) ) ;
#103 = APPROVAL_ROLE ( '' ) ;
#104 = EDGE_LOOP ( 'NONE', ( #86 ) ) ;
#105 = COORDINATED_UNIVERSAL_TIME_OFFSET ( 1, 0, .AHEAD. ) ;
#106 = APPROVAL_PERSON_ORGANIZATION ( #137, #238, #138 ) ;
#107 = ORIENTED_EDGE ( 'NONE', *, *, #46, .F. ) ;
#108 = PERSON ( 'UNSPECIFIED', 'UNSPECIFIED', 'UNSPECIFIED', ('UNSPECIFIED'), ('UNSPECIFIED'), ('UNSPECIFIED') ) ;
#109 = APPROVAL_DATE_TIME ( #158, #67 ) ;
#110 = DIRECTION ( 'NONE',  ( 4.275831445896958607E-31, 1.000000000000000000, 1.224646799147353207E-16 ) ) ;
#111 = DIRECTION ( 'NONE',  ( -4.275831445896958607E-31, -1.000000000000000000, -1.224646799147353207E-16 ) ) ;
#112 = DATE_AND_TIME ( #90, #149 ) ;
#113 = AXIS2_PLACEMENT_3D ( 'NONE', #143, #72, #21 ) ;
#114 = CC_DESIGN_APPROVAL ( #67, ( #10 ) ) ;
#115 = CLOSED_SHELL ( 'NONE', ( #214, #41, #178, #85 ) ) ;
#116 = DIRECTION ( 'NONE',  ( 0.0000000000000000000, 1.000000000000000000, 0.0000000000000000000 ) ) ;
#117 = FACE_BOUND ( 'NONE', #144, .T. ) ;
#118 = PRODUCT_DEFINITION ( 'UNKNOWN', '', #10, #18 ) ;
#119 = DIRECTION ( 'NONE',  ( -3.491481338843133355E-15, 1.224646799147353207E-16, -1.000000000000000000 ) ) ;
#120 = ORGANIZATION ( 'UNSPECIFIED', 'UNSPECIFIED', '' ) ;
#121 = VERTEX_POINT ( 'NONE', #242 ) ;
#122 = DIRECTION ( 'NONE',  ( 4.444453717816638433E-31, 1.000000000000000000, 1.251002506714026776E-16 ) ) ;
#123 = AXIS2_PLACEMENT_3D ( 'NONE', #32, #84, #71 ) ;
#124 = PERSON_AND_ORGANIZATION_ROLE ( 'creator' ) ;
#125 = AXIS2_PLACEMENT_3D ( 'NONE', #233, #119, #220 ) ;
#126 = DATE_TIME_ROLE ( 'creation_date' ) ;
#127 = APPROVAL_DATE_TIME ( #112, #51 ) ;
#128 = ORIENTED_EDGE ( 'NONE', *, *, #36, .T. ) ;
#129 = EDGE_LOOP ( 'NONE', ( #157 ) ) ;
#130 = DIRECTION ( 'NONE',  ( 0.0000000000000000000, 1.000000000000000000, 0.0000000000000000000 ) ) ;
#131 = PERSON_AND_ORGANIZATION_ROLE ( 'classification_officer' ) ;
#132 = FACE_OUTER_BOUND ( 'NONE', #221, .T. ) ;
#133 = EDGE_CURVE ( 'NONE', #1, #1, #206, .T. ) ;
#134 = DIRECTION ( 'NONE',  ( -3.491481338843133355E-15, 1.224646799147353207E-16, -1.000000000000000000 ) ) ;
#135 = DIRECTION ( 'NONE',  ( 4.275831445896958607E-31, 1.000000000000000000, 1.224646799147353207E-16 ) ) ;
#136 = CARTESIAN_POINT ( 'NONE',  ( 0.0000000000000000000, 2.200000000000033484, 0.0000000000000000000 ) ) ;
#137 = PERSON_AND_ORGANIZATION ( #108, #120 ) ;
#138 = APPROVAL_ROLE ( '' ) ;
#139 = DATE_AND_TIME ( #63, #96 ) ;
#140 = EDGE_LOOP ( 'NONE', ( #179 ) ) ;
#141 = CARTESIAN_POINT ( 'NONE',  ( 0.0000000000000000000, 0.0000000000000000000, 0.0000000000000000000 ) ) ;
#142 = PERSON_AND_ORGANIZATION ( #108, #120 ) ;
#143 = CARTESIAN_POINT ( 'NONE',  ( -9.406829180973452918E-31, 3.299471521856137096E-32, -2.694222958124217929E-16 ) ) ;
#144 = EDGE_LOOP ( 'NONE', ( #215 ) ) ;
#145 = DIRECTION ( 'NONE',  ( -3.491481338843133355E-15, 1.224646799147353207E-16, -1.000000000000000000 ) ) ;
#146 = DIRECTION ( 'NONE',  ( -3.491481338843133355E-15, 1.224646799147353207E-16, -1.000000000000000000 ) ) ;
#147 = CIRCLE ( 'NONE', #216, 1.999999999999992228 ) ;
#148 = PRODUCT ( '321746', '321746', '', ( #40 ) ) ;
#149 = LOCAL_TIME ( 13, 57, 14.00000000000000000, #88 ) ;
#150 = DIRECTION ( 'NONE',  ( 3.491481338843133355E-15, -1.224646799147353207E-16, 1.000000000000000000 ) ) ;
#151 = DIRECTION ( 'NONE',  ( 0.0000000000000000000, 0.0000000000000000000, 1.000000000000000000 ) ) ;
#152 = FACE_OUTER_BOUND ( 'NONE', #159, .T. ) ;
#153 = CARTESIAN_POINT ( 'NONE',  ( 2.779219145719134403E-13, 1.999999999999991340, 79.60000000000000853 ) ) ;
#154 = COORDINATED_UNIVERSAL_TIME_OFFSET ( 1, 0, .AHEAD. ) ;
#155 = CIRCLE ( 'NONE', #125, 2.600000000000035172 ) ;
#156 = ORIENTED_EDGE ( 'NONE', *, *, #46, .T. ) ;
#157 = ORIENTED_EDGE ( 'NONE', *, *, #133, .F. ) ;
#158 = DATE_AND_TIME ( #198, #191 ) ;
#159 = EDGE_LOOP ( 'NONE', ( #66 ) ) ;
#160 = CC_DESIGN_APPROVAL ( #238, ( #118 ) ) ;
#161 = PLANE ( 'NONE',  #68 ) ;
#162 = AXIS2_PLACEMENT_3D ( 'NONE', #47, #33, #74 ) ;
#163 = FACE_OUTER_BOUND ( 'NONE', #104, .T. ) ;
#164 = AXIS2_PLACEMENT_3D ( 'NONE', #169, #146, #50 ) ;
#165 = FACE_OUTER_BOUND ( 'NONE', #236, .T. ) ;
#166 = AXIS2_PLACEMENT_3D ( 'NONE', #224, #75, #87 ) ;
#167 = AXIS2_PLACEMENT_3D ( 'NONE', #201, #54, #135 ) ;
#168 = CARTESIAN_POINT ( 'NONE',  ( 4.189777606611760026E-14, 2.600000000000033840, 12.00000000000000000 ) ) ;
#169 = CARTESIAN_POINT ( 'NONE',  ( 4.189777606611760026E-14, -1.469576158976823947E-15, 12.00000000000000000 ) ) ;
#170 = ADVANCED_FACE ( 'NONE', ( #78, #117 ), #203, .T. ) ;
#171 = APPLICATION_PROTOCOL_DEFINITION ( 'international standard', 'config_control_design', 1994, #76 ) ;
#172 = DIRECTION ( 'NONE',  ( 0.0000000000000000000, 1.000000000000000000, 0.0000000000000000000 ) ) ;
#173 = FACE_OUTER_BOUND ( 'NONE', #232, .T. ) ;
#174 = COORDINATED_UNIVERSAL_TIME_OFFSET ( 1, 0, .AHEAD. ) ;
#175 = CIRCLE ( 'NONE', #226, 2.600000000000035172 ) ;
#176 = CC_DESIGN_SECURITY_CLASSIFICATION ( #187, ( #10 ) ) ;
#177 = SHAPE_DEFINITION_REPRESENTATION ( #52, #241 ) ;
#178 = ADVANCED_FACE ( 'NONE', ( #163 ), #161, .T. ) ;
#179 = ORIENTED_EDGE ( 'NONE', *, *, #222, .F. ) ;
#180 = APPROVAL_ROLE ( '' ) ;
#181 = CC_DESIGN_DATE_AND_TIME_ASSIGNMENT ( #29, #213, ( #187 ) ) ;
#182 = FACE_BOUND ( 'NONE', #129, .T. ) ;
#183 = LOCAL_TIME ( 13, 57, 14.00000000000000000, #105 ) ;
#184 = EDGE_CURVE ( 'NONE', #37, #37, #30, .T. ) ;
#185 = UNCERTAINTY_MEASURE_WITH_UNIT (LENGTH_MEASURE( 1.000000000000000082E-05 ), #60, 'distance_accuracy_value', 'NONE');
#186 = AXIS2_PLACEMENT_3D ( 'NONE', #197, #28, #111 ) ;
#187 = SECURITY_CLASSIFICATION ( '', '', #235 ) ;
#188 = CARTESIAN_POINT ( 'NONE',  ( 1.396592535537252553E-15, 2.600000000000035172, 0.3999999999999997446 ) ) ;
#189 = VERTEX_POINT ( 'NONE', #188 ) ;
#190 = AXIS2_PLACEMENT_3D ( 'NONE', #102, #199, #172 ) ;
#191 = LOCAL_TIME ( 13, 57, 14.00000000000000000, #43 ) ;
#192 = DATE_AND_TIME ( #15, #35 ) ;
#193 = PERSON_AND_ORGANIZATION ( #108, #120 ) ;
#194 = ORIENTED_EDGE ( 'NONE', *, *, #12, .F. ) ;
#195 = CALENDAR_DATE ( 2021, 2, 12 ) ;
#196 = APPROVAL_STATUS ( 'not_yet_approved' ) ;
#197 = CARTESIAN_POINT ( 'NONE',  ( 4.189777606611760026E-14, 1.949687717460439249E-32, 12.00000000000000000 ) ) ;
#198 = CALENDAR_DATE ( 2021, 2, 12 ) ;
#199 = DIRECTION ( 'NONE',  ( -3.491481338843133355E-15, 1.224646799147353207E-16, -1.000000000000000000 ) ) ;
#200 = AXIS2_PLACEMENT_3D ( 'NONE', #80, #151, #230 ) ;
#201 = CARTESIAN_POINT ( 'NONE',  ( 2.793185071074506684E-13, 1.199807826129472128E-32, 80.00000000000000000 ) ) ;
#202 = PRODUCT_RELATED_PRODUCT_CATEGORY ( 'detail', '', ( #148 ) ) ;
#203 = CONICAL_SURFACE ( 'NONE', #190, 1.600000000000000977, 0.7853981633974512766 ) ;
#204 = CC_DESIGN_PERSON_AND_ORGANIZATION_ASSIGNMENT ( #38, #124, ( #118 ) ) ;
#205 = PLANE ( 'NONE',  #209 ) ;
#206 = CIRCLE ( 'NONE', #162, 2.200000000000033484 ) ;
#207 =( NAMED_UNIT ( * ) SI_UNIT ( $, .STERADIAN. ) SOLID_ANGLE_UNIT ( ) );
#208 = VERTEX_POINT ( 'NONE', #19 ) ;
#209 = AXIS2_PLACEMENT_3D ( 'NONE', #231, #150, #223 ) ;
#210 = CYLINDRICAL_SURFACE ( 'NONE', #56, 1.999999999999996669 ) ;
#211 = APPROVAL_DATE_TIME ( #192, #238 ) ;
#212 = ORIENTED_EDGE ( 'NONE', *, *, #184, .T. ) ;
#213 = DATE_TIME_ROLE ( 'classification_date' ) ;
#214 = ADVANCED_FACE ( 'NONE', ( #152, #83 ), #69, .T. ) ;
#215 = ORIENTED_EDGE ( 'NONE', *, *, #12, .T. ) ;
#216 = AXIS2_PLACEMENT_3D ( 'NONE', #237, #134, #130 ) ;
#217 = CARTESIAN_POINT ( 'NONE',  ( 4.189777606611760026E-14, -1.469576158976823947E-15, 12.00000000000000000 ) ) ;
#218 = PLANE ( 'NONE',  #167 ) ;
#219 = CC_DESIGN_PERSON_AND_ORGANIZATION_ASSIGNMENT ( #6, #131, ( #187 ) ) ;
#220 = DIRECTION ( 'NONE',  ( 0.0000000000000000000, 1.000000000000000000, 0.0000000000000000000 ) ) ;
#221 = EDGE_LOOP ( 'NONE', ( #8 ) ) ;
#222 = EDGE_CURVE ( 'NONE', #228, #228, #155, .T. ) ;
#223 = DIRECTION ( 'NONE',  ( -4.275831445896958607E-31, -1.000000000000000000, -1.224646799147353207E-16 ) ) ;
#224 = CARTESIAN_POINT ( 'NONE',  ( 0.0000000000000000000, 0.0000000000000000000, 0.0000000000000000000 ) ) ;
#225 = PERSON_AND_ORGANIZATION ( #108, #120 ) ;
#226 = AXIS2_PLACEMENT_3D ( 'NONE', #217, #49, #116 ) ;
#227 = APPROVAL_PERSON_ORGANIZATION ( #22, #51, #103 ) ;
#228 = VERTEX_POINT ( 'NONE', #16 ) ;
#229 = EDGE_CURVE ( 'NONE', #189, #189, #64, .T. ) ;
#230 = DIRECTION ( 'NONE',  ( 1.000000000000000000, 0.0000000000000000000, 0.0000000000000000000 ) ) ;
#231 = CARTESIAN_POINT ( 'NONE',  ( 4.189777606611760026E-14, 1.949687717460439249E-32, 12.00000000000000000 ) ) ;
#232 = EDGE_LOOP ( 'NONE', ( #107 ) ) ;
#233 = CARTESIAN_POINT ( 'NONE',  ( 4.189777606611760026E-14, -1.469576158976823947E-15, 12.00000000000000000 ) ) ;
#234 = EDGE_LOOP ( 'NONE', ( #128 ) ) ;
#235 = SECURITY_CLASSIFICATION_LEVEL ( 'unclassified' ) ;
#236 = EDGE_LOOP ( 'NONE', ( #194 ) ) ;
#237 = CARTESIAN_POINT ( 'NONE',  ( 4.552622990965079478E-14, -1.596845187623821366E-15, 13.03923048454139710 ) ) ;
#238 = APPROVAL ( #62, 'UNSPECIFIED' ) ;
#239 = APPLICATION_CONTEXT ( 'configuration controlled 3d designs of mechanical parts and assemblies' ) ;
#240 = CLOSED_SHELL ( 'NONE', ( #243, #95, #20, #170, #4 ) ) ;
#241 = ADVANCED_BREP_SHAPE_REPRESENTATION ( '321746', ( #27, #31, #200 ), #17 ) ;
#242 = CARTESIAN_POINT ( 'NONE',  ( 4.552622990965079478E-14, 1.999999999999990452, 13.03923048454139710 ) ) ;
#243 = ADVANCED_FACE ( 'NONE', ( #3 ), #205, .F. ) ;
ENDSEC;
END-ISO-10303-21;
