ISO-10303-21;
HEADER;
FILE_DESCRIPTION (( 'STEP AP203' ),
    '1' );
FILE_NAME ('321745.step',
    '2021-12-02T12:57:13',
    ( '' ),
    ( '' ),
    'SwSTEP 2.0',
    'SolidWorks 2019',
    '' );
FILE_SCHEMA (( 'CONFIG_CONTROL_DESIGN' ));
ENDSEC;

DATA;
#1 = FACE_BOUND ( 'NONE', #242, .T. ) ;
#2 = AXIS2_PLACEMENT_3D ( 'NONE', #36, #112, #132 ) ;
#3 = VERTEX_POINT ( 'NONE', #96 ) ;
#4 = AXIS2_PLACEMENT_3D ( 'NONE', #91, #52, #202 ) ;
#5 = ADVANCED_FACE ( 'NONE', ( #223 ), #165, .F. ) ;
#6 = DIRECTION ( 'NONE',  ( 4.453017212455977297E-31, 1.000000000000000000, 1.253412916168196511E-16 ) ) ;
#7 = CARTESIAN_POINT ( 'NONE',  ( 2.793185071074506684E-13, -9.797174393178826052E-15, 80.00000000000000000 ) ) ;
#8 = DIRECTION ( 'NONE',  ( 0.0000000000000000000, 1.000000000000000000, 0.0000000000000000000 ) ) ;
#9 = AXIS2_PLACEMENT_3D ( 'NONE', #59, #166, #194 ) ;
#10 = APPROVAL_STATUS ( 'not_yet_approved' ) ;
#11 = CALENDAR_DATE ( 2021, 2, 12 ) ;
#12 = PERSON_AND_ORGANIZATION_ROLE ( 'creator' ) ;
#13 = APPROVAL_ROLE ( '' ) ;
#14 = CC_DESIGN_SECURITY_CLASSIFICATION ( #149, ( #106 ) ) ;
#15 = CC_DESIGN_APPROVAL ( #28, ( #106 ) ) ;
#16 = APPLICATION_CONTEXT ( 'configuration controlled 3d designs of mechanical parts and assemblies' ) ;
#17 = EDGE_LOOP ( 'NONE', ( #167 ) ) ;
#18 = EDGE_LOOP ( 'NONE', ( #231 ) ) ;
#19 = EDGE_LOOP ( 'NONE', ( #95 ) ) ;
#20 = VERTEX_POINT ( 'NONE', #192 ) ;
#21 = PLANE ( 'NONE',  #4 ) ;
#22 = VERTEX_POINT ( 'NONE', #227 ) ;
#23 = CC_DESIGN_APPROVAL ( #191, ( #236 ) ) ;
#24 = ADVANCED_FACE ( 'NONE', ( #37 ), #21, .T. ) ;
#25 = DIRECTION ( 'NONE',  ( -3.491481338843133355E-15, 1.224646799147353207E-16, -1.000000000000000000 ) ) ;
#26 = FACE_OUTER_BOUND ( 'NONE', #183, .T. ) ;
#27 =( NAMED_UNIT ( * ) PLANE_ANGLE_UNIT ( ) SI_UNIT ( $, .RADIAN. ) );
#28 = APPROVAL ( #62, 'UNSPECIFIED' ) ;
#29 = PERSON_AND_ORGANIZATION_ROLE ( 'classification_officer' ) ;
#30 = DIRECTION ( 'NONE',  ( 1.000000000000000000, 0.0000000000000000000, 0.0000000000000000000 ) ) ;
#31 = AXIS2_PLACEMENT_3D ( 'NONE', #211, #55, #174 ) ;
#32 = DATE_AND_TIME ( #234, #225 ) ;
#33 = CC_DESIGN_PERSON_AND_ORGANIZATION_ASSIGNMENT ( #176, #107, ( #106 ) ) ;
#34 = AXIS2_PLACEMENT_3D ( 'NONE', #7, #74, #173 ) ;
#35 = ORIENTED_EDGE ( 'NONE', *, *, #87, .T. ) ;
#36 = CARTESIAN_POINT ( 'NONE',  ( -9.385450023743968204E-31, 3.291972722942827754E-32, -2.688099724128481053E-16 ) ) ;
#37 = FACE_OUTER_BOUND ( 'NONE', #210, .T. ) ;
#38 = DIRECTION ( 'NONE',  ( -3.491481338843133355E-15, 1.224646799147353207E-16, -1.000000000000000000 ) ) ;
#39 = CARTESIAN_POINT ( 'NONE',  ( 4.549599279428801974E-14, -1.595784612385096321E-15, 13.03057023050355134 ) ) ;
#40 = DIRECTION ( 'NONE',  ( 4.275831445896958607E-31, 1.000000000000000000, 1.224646799147353207E-16 ) ) ;
#41 = ADVANCED_FACE ( 'NONE', ( #110 ), #67, .T. ) ;
#42 = CLOSED_SHELL ( 'NONE', ( #5, #69, #146, #140, #182 ) ) ;
#43 = DIRECTION ( 'NONE',  ( -3.491481338843133355E-15, 1.224646799147353207E-16, -1.000000000000000000 ) ) ;
#44 = PERSON_AND_ORGANIZATION ( #88, #72 ) ;
#45 = AXIS2_PLACEMENT_3D ( 'NONE', #232, #38, #122 ) ;
#46 = COORDINATED_UNIVERSAL_TIME_OFFSET ( 1, 0, .AHEAD. ) ;
#47 = APPROVAL_STATUS ( 'not_yet_approved' ) ;
#48 = CALENDAR_DATE ( 2021, 2, 12 ) ;
#49 = CLOSED_SHELL ( 'NONE', ( #160, #41, #24, #229 ) ) ;
#50 = LOCAL_TIME ( 13, 57, 13.00000000000000000, #137 ) ;
#51 = CIRCLE ( 'NONE', #218, 2.595000000000034834 ) ;
#52 = DIRECTION ( 'NONE',  ( -3.491481338843133355E-15, 1.224646799147353207E-16, -1.000000000000000000 ) ) ;
#53 = ORIENTED_EDGE ( 'NONE', *, *, #222, .F. ) ;
#54 = ORIENTED_EDGE ( 'NONE', *, *, #203, .F. ) ;
#55 = DIRECTION ( 'NONE',  ( -3.491481338843133355E-15, 1.224646799147353207E-16, -1.000000000000000000 ) ) ;
#56 = VERTEX_POINT ( 'NONE', #133 ) ;
#57 = PRODUCT_RELATED_PRODUCT_CATEGORY ( 'detail', '', ( #124 ) ) ;
#58 = CIRCLE ( 'NONE', #45, 2.195000000000033147 ) ;
#59 = CARTESIAN_POINT ( 'NONE',  ( 2.793185071074506684E-13, -9.797174393178826052E-15, 80.00000000000000000 ) ) ;
#60 = FACE_OUTER_BOUND ( 'NONE', #19, .T. ) ;
#61 = DIRECTION ( 'NONE',  ( -3.491481338843133355E-15, 1.224646799147353207E-16, -1.000000000000000000 ) ) ;
#62 = APPROVAL_STATUS ( 'not_yet_approved' ) ;
#63 = FACE_OUTER_BOUND ( 'NONE', #18, .T. ) ;
#64 = PERSON_AND_ORGANIZATION ( #88, #72 ) ;
#65 = CC_DESIGN_PERSON_AND_ORGANIZATION_ASSIGNMENT ( #161, #29, ( #149 ) ) ;
#66 = COORDINATED_UNIVERSAL_TIME_OFFSET ( 1, 0, .AHEAD. ) ;
#67 = PLANE ( 'NONE',  #142 ) ;
#68 = AXIS2_PLACEMENT_3D ( 'NONE', #80, #129, #30 ) ;
#69 = ADVANCED_FACE ( 'NONE', ( #193, #63 ), #152, .T. ) ;
#70 = CC_DESIGN_PERSON_AND_ORGANIZATION_ASSIGNMENT ( #101, #125, ( #124 ) ) ;
#71 = DIRECTION ( 'NONE',  ( -4.275831445896958607E-31, -1.000000000000000000, -1.224646799147353207E-16 ) ) ;
#72 = ORGANIZATION ( 'UNSPECIFIED', 'UNSPECIFIED', '' ) ;
#73 = FACE_OUTER_BOUND ( 'NONE', #204, .T. ) ;
#74 = DIRECTION ( 'NONE',  ( -3.491481338843133355E-15, 1.224646799147353207E-16, -1.000000000000000000 ) ) ;
#75 = DIRECTION ( 'NONE',  ( 0.0000000000000000000, 1.000000000000000000, 0.0000000000000000000 ) ) ;
#76 = DIRECTION ( 'NONE',  ( 3.491481338843133355E-15, -1.224646799147353207E-16, 1.000000000000000000 ) ) ;
#77 = DIRECTION ( 'NONE',  ( 0.0000000000000000000, 1.000000000000000000, 0.0000000000000000000 ) ) ;
#78 = EDGE_LOOP ( 'NONE', ( #201 ) ) ;
#79 = FACE_OUTER_BOUND ( 'NONE', #17, .T. ) ;
#80 = CARTESIAN_POINT ( 'NONE',  ( 0.0000000000000000000, 0.0000000000000000000, 0.0000000000000000000 ) ) ;
#81 = DATE_AND_TIME ( #11, #50 ) ;
#82 = PERSON_AND_ORGANIZATION ( #88, #72 ) ;
#83 = PERSON_AND_ORGANIZATION_ROLE ( 'creator' ) ;
#84 = LOCAL_TIME ( 13, 57, 13.00000000000000000, #66 ) ;
#85 = CIRCLE ( 'NONE', #220, 2.595000000000034834 ) ;
#86 = CIRCLE ( 'NONE', #9, 1.600000000000000977 ) ;
#87 = EDGE_CURVE ( 'NONE', #94, #94, #86, .T. ) ;
#88 = PERSON ( 'UNSPECIFIED', 'UNSPECIFIED', 'UNSPECIFIED', ('UNSPECIFIED'), ('UNSPECIFIED'), ('UNSPECIFIED') ) ;
#89 = EDGE_LOOP ( 'NONE', ( #147 ) ) ;
#90 = DIRECTION ( 'NONE',  ( -3.491481338843133355E-15, 1.224646799147353207E-16, -1.000000000000000000 ) ) ;
#91 = CARTESIAN_POINT ( 'NONE',  ( -4.692725011871984102E-31, 1.645986361471413877E-32, -1.344049862064240526E-16 ) ) ;
#92 = DIRECTION ( 'NONE',  ( -3.491481338843133355E-15, 1.224646799147353207E-16, -1.000000000000000000 ) ) ;
#93 = CIRCLE ( 'NONE', #134, 1.999999999999992228 ) ;
#94 = VERTEX_POINT ( 'NONE', #208 ) ;
#95 = ORIENTED_EDGE ( 'NONE', *, *, #131, .F. ) ;
#96 = CARTESIAN_POINT ( 'NONE',  ( 2.779219145719134403E-13, 1.999999999999991340, 79.60000000000000853 ) ) ;
#97 = CARTESIAN_POINT ( 'NONE',  ( 4.189777606611760026E-14, 1.945938318003784577E-32, 12.00000000000000000 ) ) ;
#98 = ORIENTED_EDGE ( 'NONE', *, *, #87, .F. ) ;
#99 = CARTESIAN_POINT ( 'NONE',  ( 4.189777606611760026E-14, -1.469576158976823947E-15, 12.00000000000000000 ) ) ;
#100 = DIRECTION ( 'NONE',  ( -3.491481338843133355E-15, 1.224646799147353207E-16, -1.000000000000000000 ) ) ;
#101 = PERSON_AND_ORGANIZATION ( #88, #72 ) ;
#102 = MANIFOLD_SOLID_BREP ( 'Corps-Déplacer/Copier1[2]', #49 ) ;
#103 =( NAMED_UNIT ( * ) SI_UNIT ( $, .STERADIAN. ) SOLID_ANGLE_UNIT ( ) );
#104 = DATE_TIME_ROLE ( 'creation_date' ) ;
#105 = APPROVAL ( #47, 'UNSPECIFIED' ) ;
#106 = PRODUCT_DEFINITION_FORMATION_WITH_SPECIFIED_SOURCE ( 'ANY', '', #124, .NOT_KNOWN. ) ;
#107 = PERSON_AND_ORGANIZATION_ROLE ( 'design_supplier' ) ;
#108 = CONICAL_SURFACE ( 'NONE', #2, 2.195000000000033147, 0.7853981633974502774 ) ;
#109 = EDGE_CURVE ( 'NONE', #20, #20, #85, .T. ) ;
#110 = FACE_OUTER_BOUND ( 'NONE', #111, .T. ) ;
#111 = EDGE_LOOP ( 'NONE', ( #54 ) ) ;
#112 = DIRECTION ( 'NONE',  ( 3.491481338843133355E-15, -1.224646799147353207E-16, 1.000000000000000000 ) ) ;
#113 = ORIENTED_EDGE ( 'NONE', *, *, #222, .T. ) ;
#114 = EDGE_CURVE ( 'NONE', #187, #187, #58, .T. ) ;
#115 = CARTESIAN_POINT ( 'NONE',  ( -1.710569414459005214E-46, 2.195000000000033147, 0.0000000000000000000 ) ) ;
#116 = ADVANCED_BREP_SHAPE_REPRESENTATION ( '321745', ( #184, #102, #68 ), #117 ) ;
#117 =( GEOMETRIC_REPRESENTATION_CONTEXT ( 3 ) GLOBAL_UNCERTAINTY_ASSIGNED_CONTEXT ( ( #224 ) ) GLOBAL_UNIT_ASSIGNED_CONTEXT ( ( #216, #27, #103 ) ) REPRESENTATION_CONTEXT ( 'NONE', 'WORKASPACE' ) );
#118 = CARTESIAN_POINT ( 'NONE',  ( 4.549599279428801974E-14, 1.999999999999990452, 13.03057023050355134 ) ) ;
#119 = EDGE_CURVE ( 'NONE', #22, #22, #181, .T. ) ;
#120 = CARTESIAN_POINT ( 'NONE',  ( 1.396592535537252159E-15, -4.898587196589408145E-17, 0.3999999999999996336 ) ) ;
#121 = DIRECTION ( 'NONE',  ( -4.275831445896958607E-31, -1.000000000000000000, -1.224646799147353207E-16 ) ) ;
#122 = DIRECTION ( 'NONE',  ( 4.275831445896958607E-31, 1.000000000000000000, 1.224646799147353207E-16 ) ) ;
#123 = CC_DESIGN_PERSON_AND_ORGANIZATION_ASSIGNMENT ( #198, #12, ( #236 ) ) ;
#124 = PRODUCT ( '321745', '321745', '', ( #180 ) ) ;
#125 = PERSON_AND_ORGANIZATION_ROLE ( 'design_owner' ) ;
#126 = CONICAL_SURFACE ( 'NONE', #34, 1.600000000000000977, 0.7853981633974512766 ) ;
#127 = AXIS2_PLACEMENT_3D ( 'NONE', #185, #92, #163 ) ;
#128 = APPROVAL_ROLE ( '' ) ;
#129 = DIRECTION ( 'NONE',  ( 0.0000000000000000000, 0.0000000000000000000, 1.000000000000000000 ) ) ;
#130 = APPLICATION_PROTOCOL_DEFINITION ( 'international standard', 'config_control_design', 1994, #16 ) ;
#131 = EDGE_CURVE ( 'NONE', #3, #3, #158, .T. ) ;
#132 = DIRECTION ( 'NONE',  ( -4.275831445896959482E-31, -1.000000000000000000, -1.224646799147353207E-16 ) ) ;
#133 = CARTESIAN_POINT ( 'NONE',  ( 4.189777606611760026E-14, 2.595000000000033502, 12.00000000000000000 ) ) ;
#134 = AXIS2_PLACEMENT_3D ( 'NONE', #39, #206, #75 ) ;
#135 = FACE_OUTER_BOUND ( 'NONE', #240, .T. ) ;
#136 = FACE_OUTER_BOUND ( 'NONE', #207, .T. ) ;
#137 = COORDINATED_UNIVERSAL_TIME_OFFSET ( 1, 0, .AHEAD. ) ;
#138 = APPROVAL_ROLE ( '' ) ;
#139 = LOCAL_TIME ( 13, 57, 13.00000000000000000, #157 ) ;
#140 = ADVANCED_FACE ( 'NONE', ( #60, #1 ), #126, .T. ) ;
#141 = DATE_AND_TIME ( #239, #139 ) ;
#142 = AXIS2_PLACEMENT_3D ( 'NONE', #97, #76, #121 ) ;
#143 = DATE_AND_TIME ( #48, #164 ) ;
#144 = CALENDAR_DATE ( 2021, 2, 12 ) ;
#145 = AXIS2_PLACEMENT_3D ( 'NONE', #150, #100, #40 ) ;
#146 = ADVANCED_FACE ( 'NONE', ( #136, #79 ), #189, .T. ) ;
#147 = ORIENTED_EDGE ( 'NONE', *, *, #119, .T. ) ;
#148 = ORIENTED_EDGE ( 'NONE', *, *, #119, .F. ) ;
#149 = SECURITY_CLASSIFICATION ( '', '', #196 ) ;
#150 = CARTESIAN_POINT ( 'NONE',  ( 0.0000000000000000000, 0.0000000000000000000, 0.0000000000000000000 ) ) ;
#151 = ORIENTED_EDGE ( 'NONE', *, *, #109, .T. ) ;
#152 = CONICAL_SURFACE ( 'NONE', #127, 2.595000000000034834, 0.5235987755983005920 ) ;
#153 = CARTESIAN_POINT ( 'NONE',  ( 4.189777606611760026E-14, -1.469576158976823947E-15, 12.00000000000000000 ) ) ;
#154 = DIRECTION ( 'NONE',  ( -3.491481338843133355E-15, 1.224646799147353207E-16, -1.000000000000000000 ) ) ;
#155 = FACE_OUTER_BOUND ( 'NONE', #89, .T. ) ;
#156 = APPROVAL_DATE_TIME ( #199, #191 ) ;
#157 = COORDINATED_UNIVERSAL_TIME_OFFSET ( 1, 0, .AHEAD. ) ;
#158 = CIRCLE ( 'NONE', #235, 2.000000000000000888 ) ;
#159 = PERSON_AND_ORGANIZATION ( #88, #72 ) ;
#160 = ADVANCED_FACE ( 'NONE', ( #135, #26 ), #170, .T. ) ;
#161 = PERSON_AND_ORGANIZATION ( #88, #72 ) ;
#162 = ORIENTED_EDGE ( 'NONE', *, *, #114, .T. ) ;
#163 = DIRECTION ( 'NONE',  ( 0.0000000000000000000, 1.000000000000000000, 0.0000000000000000000 ) ) ;
#164 = LOCAL_TIME ( 13, 57, 13.00000000000000000, #46 ) ;
#165 = PLANE ( 'NONE',  #186 ) ;
#166 = DIRECTION ( 'NONE',  ( -3.491481338843133355E-15, 1.224646799147353207E-16, -1.000000000000000000 ) ) ;
#167 = ORIENTED_EDGE ( 'NONE', *, *, #131, .T. ) ;
#168 = AXIS2_PLACEMENT_3D ( 'NONE', #212, #43, #171 ) ;
#169 = DESIGN_CONTEXT ( 'detailed design', #178, 'design' ) ;
#170 = CYLINDRICAL_SURFACE ( 'NONE', #145, 2.595000000000034834 ) ;
#171 = DIRECTION ( 'NONE',  ( 4.275831445896958607E-31, 1.000000000000000000, 1.224646799147353207E-16 ) ) ;
#172 = CC_DESIGN_DATE_AND_TIME_ASSIGNMENT ( #141, #215, ( #149 ) ) ;
#173 = DIRECTION ( 'NONE',  ( 0.0000000000000000000, 1.000000000000000000, 0.0000000000000000000 ) ) ;
#174 = DIRECTION ( 'NONE',  ( 4.275831445896958607E-31, 1.000000000000000000, 1.224646799147353207E-16 ) ) ;
#175 = PRODUCT_DEFINITION_SHAPE ( 'NONE', 'NONE',  #236 ) ;
#176 = PERSON_AND_ORGANIZATION ( #88, #72 ) ;
#177 = SHAPE_DEFINITION_REPRESENTATION ( #175, #116 ) ;
#178 = APPLICATION_CONTEXT ( 'configuration controlled 3d designs of mechanical parts and assemblies' ) ;
#179 = CC_DESIGN_PERSON_AND_ORGANIZATION_ASSIGNMENT ( #159, #83, ( #106 ) ) ;
#180 = MECHANICAL_CONTEXT ( 'NONE', #16, 'mechanical' ) ;
#181 = CIRCLE ( 'NONE', #214, 2.595000000000034834 ) ;
#182 = ADVANCED_FACE ( 'NONE', ( #73 ), #226, .F. ) ;
#183 = EDGE_LOOP ( 'NONE', ( #148 ) ) ;
#184 = MANIFOLD_SOLID_BREP ( 'Corps-Déplacer/Copier1[1]', #42 ) ;
#185 = CARTESIAN_POINT ( 'NONE',  ( 4.189777606611760026E-14, -1.469576158976823947E-15, 12.00000000000000000 ) ) ;
#186 = AXIS2_PLACEMENT_3D ( 'NONE', #243, #188, #71 ) ;
#187 = VERTEX_POINT ( 'NONE', #115 ) ;
#188 = DIRECTION ( 'NONE',  ( 3.491481338843133355E-15, -1.224646799147353207E-16, 1.000000000000000000 ) ) ;
#189 = CYLINDRICAL_SURFACE ( 'NONE', #168, 1.999999999999996669 ) ;
#190 = FACE_BOUND ( 'NONE', #78, .T. ) ;
#191 = APPROVAL ( #10, 'UNSPECIFIED' ) ;
#192 = CARTESIAN_POINT ( 'NONE',  ( 4.189777606611760026E-14, 2.595000000000033502, 12.00000000000000000 ) ) ;
#193 = FACE_BOUND ( 'NONE', #219, .T. ) ;
#194 = DIRECTION ( 'NONE',  ( 0.0000000000000000000, 1.000000000000000000, 0.0000000000000000000 ) ) ;
#195 = APPLICATION_PROTOCOL_DEFINITION ( 'international standard', 'config_control_design', 1994, #178 ) ;
#196 = SECURITY_CLASSIFICATION_LEVEL ( 'unclassified' ) ;
#197 = COORDINATED_UNIVERSAL_TIME_OFFSET ( 1, 0, .AHEAD. ) ;
#198 = PERSON_AND_ORGANIZATION ( #88, #72 ) ;
#199 = DATE_AND_TIME ( #144, #84 ) ;
#200 = APPROVAL_PERSON_ORGANIZATION ( #64, #191, #13 ) ;
#201 = ORIENTED_EDGE ( 'NONE', *, *, #114, .F. ) ;
#202 = DIRECTION ( 'NONE',  ( 4.275831445896958607E-31, 1.000000000000000000, 1.224646799147353207E-16 ) ) ;
#203 = EDGE_CURVE ( 'NONE', #56, #56, #51, .T. ) ;
#204 = EDGE_LOOP ( 'NONE', ( #98 ) ) ;
#205 = ORIENTED_EDGE ( 'NONE', *, *, #203, .T. ) ;
#206 = DIRECTION ( 'NONE',  ( -3.491481338843133355E-15, 1.224646799147353207E-16, -1.000000000000000000 ) ) ;
#207 = EDGE_LOOP ( 'NONE', ( #53 ) ) ;
#208 = CARTESIAN_POINT ( 'NONE',  ( 2.793185071074506684E-13, 1.599999999999991207, 80.00000000000000000 ) ) ;
#209 = VERTEX_POINT ( 'NONE', #118 ) ;
#210 = EDGE_LOOP ( 'NONE', ( #162 ) ) ;
#211 = CARTESIAN_POINT ( 'NONE',  ( 2.793185071074506684E-13, 1.199807826129472128E-32, 80.00000000000000000 ) ) ;
#212 = CARTESIAN_POINT ( 'NONE',  ( 0.0000000000000000000, 0.0000000000000000000, 0.0000000000000000000 ) ) ;
#213 = CC_DESIGN_APPROVAL ( #105, ( #149 ) ) ;
#214 = AXIS2_PLACEMENT_3D ( 'NONE', #120, #90, #6 ) ;
#215 = DATE_TIME_ROLE ( 'classification_date' ) ;
#216 =( LENGTH_UNIT ( ) NAMED_UNIT ( * ) SI_UNIT ( .MILLI., .METRE. ) );
#217 = APPROVAL_DATE_TIME ( #143, #28 ) ;
#218 = AXIS2_PLACEMENT_3D ( 'NONE', #99, #25, #8 ) ;
#219 = EDGE_LOOP ( 'NONE', ( #113 ) ) ;
#220 = AXIS2_PLACEMENT_3D ( 'NONE', #153, #154, #230 ) ;
#221 = EDGE_LOOP ( 'NONE', ( #151 ) ) ;
#222 = EDGE_CURVE ( 'NONE', #209, #209, #93, .T. ) ;
#223 = FACE_OUTER_BOUND ( 'NONE', #221, .T. ) ;
#224 = UNCERTAINTY_MEASURE_WITH_UNIT (LENGTH_MEASURE( 1.000000000000000082E-05 ), #216, 'distance_accuracy_value', 'NONE');
#225 = LOCAL_TIME ( 13, 57, 13.00000000000000000, #197 ) ;
#226 = PLANE ( 'NONE',  #31 ) ;
#227 = CARTESIAN_POINT ( 'NONE',  ( 1.396592535537253342E-15, 2.595000000000034834, 0.3999999999999999667 ) ) ;
#228 = CARTESIAN_POINT ( 'NONE',  ( 2.779219145719134403E-13, -9.748188521212932624E-15, 79.60000000000000853 ) ) ;
#229 = ADVANCED_FACE ( 'NONE', ( #155, #190 ), #108, .T. ) ;
#230 = DIRECTION ( 'NONE',  ( 0.0000000000000000000, 1.000000000000000000, 0.0000000000000000000 ) ) ;
#231 = ORIENTED_EDGE ( 'NONE', *, *, #109, .F. ) ;
#232 = CARTESIAN_POINT ( 'NONE',  ( -9.385450023743968204E-31, 3.291972722942827754E-32, -2.688099724128481053E-16 ) ) ;
#233 = CC_DESIGN_DATE_AND_TIME_ASSIGNMENT ( #32, #104, ( #236 ) ) ;
#234 = CALENDAR_DATE ( 2021, 2, 12 ) ;
#235 = AXIS2_PLACEMENT_3D ( 'NONE', #228, #61, #77 ) ;
#236 = PRODUCT_DEFINITION ( 'UNKNOWN', '', #106, #169 ) ;
#237 = APPROVAL_DATE_TIME ( #81, #105 ) ;
#238 = APPROVAL_PERSON_ORGANIZATION ( #44, #105, #128 ) ;
#239 = CALENDAR_DATE ( 2021, 2, 12 ) ;
#240 = EDGE_LOOP ( 'NONE', ( #205 ) ) ;
#241 = APPROVAL_PERSON_ORGANIZATION ( #82, #28, #138 ) ;
#242 = EDGE_LOOP ( 'NONE', ( #35 ) ) ;
#243 = CARTESIAN_POINT ( 'NONE',  ( 4.189777606611760026E-14, 1.945938318003784577E-32, 12.00000000000000000 ) ) ;
ENDSEC;
END-ISO-10303-21;
