ISO-10303-21;
HEADER;
FILE_DESCRIPTION (( 'STEP AP203' ),
    '1' );
FILE_NAME ('321744.step',
    '2021-12-02T12:57:13',
    ( '' ),
    ( '' ),
    'SwSTEP 2.0',
    'SolidWorks 2019',
    '' );
FILE_SCHEMA (( 'CONFIG_CONTROL_DESIGN' ));
ENDSEC;

DATA;
#1 = EDGE_CURVE ( 'NONE', #31, #31, #51, .T. ) ;
#2 = FACE_OUTER_BOUND ( 'NONE', #178, .T. ) ;
#3 = PERSON_AND_ORGANIZATION ( #211, #207 ) ;
#4 = DIRECTION ( 'NONE',  ( 4.275831445896957731E-31, 1.000000000000000000, 1.224646799147353207E-16 ) ) ;
#5 = SHAPE_DEFINITION_REPRESENTATION ( #219, #189 ) ;
#6 = CARTESIAN_POINT ( 'NONE',  ( 0.0000000000000000000, 2.190000000000033697, 0.0000000000000000000 ) ) ;
#7 = AXIS2_PLACEMENT_3D ( 'NONE', #154, #225, #166 ) ;
#8 = PERSON_AND_ORGANIZATION_ROLE ( 'design_supplier' ) ;
#9 = ADVANCED_FACE ( 'NONE', ( #109, #26 ), #168, .T. ) ;
#10 = CONICAL_SURFACE ( 'NONE', #49, 2.190000000000033697, 0.7853981633974504994 ) ;
#11 = ORIENTED_EDGE ( 'NONE', *, *, #47, .F. ) ;
#12 = APPLICATION_CONTEXT ( 'configuration controlled 3d designs of mechanical parts and assemblies' ) ;
#13 = APPROVAL_PERSON_ORGANIZATION ( #55, #173, #43 ) ;
#14 = CC_DESIGN_PERSON_AND_ORGANIZATION_ASSIGNMENT ( #153, #8, ( #104 ) ) ;
#15 = APPLICATION_CONTEXT ( 'configuration controlled 3d designs of mechanical parts and assemblies' ) ;
#16 = APPROVAL_PERSON_ORGANIZATION ( #3, #123, #42 ) ;
#17 = CARTESIAN_POINT ( 'NONE',  ( 4.189777606611760026E-14, 1.942188918547130180E-32, 12.00000000000000000 ) ) ;
#18 = FACE_OUTER_BOUND ( 'NONE', #120, .T. ) ;
#19 = PRODUCT_RELATED_PRODUCT_CATEGORY ( 'detail', '', ( #163 ) ) ;
#20 = CARTESIAN_POINT ( 'NONE',  ( -9.364070866514481738E-31, 3.284473924029518411E-32, -2.681976490132744670E-16 ) ) ;
#21 = MANIFOLD_SOLID_BREP ( 'Corps-Déplacer/Copier1[1]', #61 ) ;
#22 = DATE_AND_TIME ( #137, #150 ) ;
#23 = CIRCLE ( 'NONE', #165, 1.600000000000000977 ) ;
#24 = FACE_OUTER_BOUND ( 'NONE', #142, .T. ) ;
#25 = COORDINATED_UNIVERSAL_TIME_OFFSET ( 1, 0, .AHEAD. ) ;
#26 = FACE_OUTER_BOUND ( 'NONE', #198, .T. ) ;
#27 = CARTESIAN_POINT ( 'NONE',  ( 4.546575567892524470E-14, 1.999999999999990452, 13.02190997646570914 ) ) ;
#28 = ADVANCED_FACE ( 'NONE', ( #181 ), #241, .F. ) ;
#29 = DATE_AND_TIME ( #60, #115 ) ;
#30 = LOCAL_TIME ( 13, 57, 13.00000000000000000, #194 ) ;
#31 = VERTEX_POINT ( 'NONE', #64 ) ;
#32 = DATE_AND_TIME ( #232, #94 ) ;
#33 = APPROVAL_STATUS ( 'not_yet_approved' ) ;
#34 = CIRCLE ( 'NONE', #155, 2.000000000000000888 ) ;
#35 = ORIENTED_EDGE ( 'NONE', *, *, #161, .T. ) ;
#36 = CARTESIAN_POINT ( 'NONE',  ( 4.189777606611760026E-14, -1.469576158976823947E-15, 12.00000000000000000 ) ) ;
#37 = AXIS2_PLACEMENT_3D ( 'NONE', #41, #200, #221 ) ;
#38 = FACE_OUTER_BOUND ( 'NONE', #197, .T. ) ;
#39 = COORDINATED_UNIVERSAL_TIME_OFFSET ( 1, 0, .AHEAD. ) ;
#40 = FACE_OUTER_BOUND ( 'NONE', #67, .T. ) ;
#41 = CARTESIAN_POINT ( 'NONE',  ( -4.682035433257240869E-31, 1.642236962014759205E-32, -1.340988245066372335E-16 ) ) ;
#42 = APPROVAL_ROLE ( '' ) ;
#43 = APPROVAL_ROLE ( '' ) ;
#44 = CARTESIAN_POINT ( 'NONE',  ( 2.793185071074506684E-13, -9.797174393178826052E-15, 80.00000000000000000 ) ) ;
#45 = CC_DESIGN_APPROVAL ( #173, ( #223 ) ) ;
#46 = APPLICATION_PROTOCOL_DEFINITION ( 'international standard', 'config_control_design', 1994, #12 ) ;
#47 = EDGE_CURVE ( 'NONE', #79, #79, #83, .T. ) ;
#48 = APPROVAL_ROLE ( '' ) ;
#49 = AXIS2_PLACEMENT_3D ( 'NONE', #20, #243, #75 ) ;
#50 = AXIS2_PLACEMENT_3D ( 'NONE', #36, #132, #108 ) ;
#51 = CIRCLE ( 'NONE', #7, 2.590000000000034941 ) ;
#52 = DIRECTION ( 'NONE',  ( -3.491481338843133355E-15, 1.224646799147353207E-16, -1.000000000000000000 ) ) ;
#53 = CARTESIAN_POINT ( 'NONE',  ( 1.396592535537251370E-15, -4.898587196589405680E-17, 0.3999999999999994116 ) ) ;
#54 = APPROVAL_PERSON_ORGANIZATION ( #105, #182, #48 ) ;
#55 = PERSON_AND_ORGANIZATION ( #211, #207 ) ;
#56 = DIRECTION ( 'NONE',  ( -3.491481338843133355E-15, 1.224646799147353207E-16, -1.000000000000000000 ) ) ;
#57 = DIRECTION ( 'NONE',  ( -3.491481338843133355E-15, 1.224646799147353207E-16, -1.000000000000000000 ) ) ;
#58 = CARTESIAN_POINT ( 'NONE',  ( 4.546575567892524470E-14, -1.594724037146371672E-15, 13.02190997646570914 ) ) ;
#59 = ADVANCED_FACE ( 'NONE', ( #40, #180 ), #107, .T. ) ;
#60 = CALENDAR_DATE ( 2021, 2, 12 ) ;
#61 = CLOSED_SHELL ( 'NONE', ( #139, #169, #233, #59, #28 ) ) ;
#62 = CARTESIAN_POINT ( 'NONE',  ( 2.779219145719134403E-13, 1.999999999999991340, 79.60000000000000853 ) ) ;
#63 = DATE_TIME_ROLE ( 'classification_date' ) ;
#64 = CARTESIAN_POINT ( 'NONE',  ( 4.189777606611760026E-14, 2.590000000000033609, 12.00000000000000000 ) ) ;
#65 = ORIENTED_EDGE ( 'NONE', *, *, #103, .F. ) ;
#66 = CLOSED_SHELL ( 'NONE', ( #9, #159, #89, #217 ) ) ;
#67 = EDGE_LOOP ( 'NONE', ( #235 ) ) ;
#68 = ORIENTED_EDGE ( 'NONE', *, *, #47, .T. ) ;
#69 = CC_DESIGN_PERSON_AND_ORGANIZATION_ASSIGNMENT ( #170, #141, ( #163 ) ) ;
#70 = AXIS2_PLACEMENT_3D ( 'NONE', #130, #133, #77 ) ;
#71 = ORIENTED_EDGE ( 'NONE', *, *, #1, .T. ) ;
#72 = DIRECTION ( 'NONE',  ( -3.491481338843133355E-15, 1.224646799147353207E-16, -1.000000000000000000 ) ) ;
#73 = CARTESIAN_POINT ( 'NONE',  ( 2.779219145719134403E-13, -9.748188521212932624E-15, 79.60000000000000853 ) ) ;
#74 = CC_DESIGN_SECURITY_CLASSIFICATION ( #223, ( #104 ) ) ;
#75 = DIRECTION ( 'NONE',  ( -4.275831445896957731E-31, -1.000000000000000000, -1.224646799147353207E-16 ) ) ;
#76 = CARTESIAN_POINT ( 'NONE',  ( 2.793185071074506684E-13, -9.797174393178826052E-15, 80.00000000000000000 ) ) ;
#77 = DIRECTION ( 'NONE',  ( 4.275831445896958607E-31, 1.000000000000000000, 1.224646799147353207E-16 ) ) ;
#78 = APPROVAL_DATE_TIME ( #22, #173 ) ;
#79 = VERTEX_POINT ( 'NONE', #102 ) ;
#80 = DIRECTION ( 'NONE',  ( -3.491481338843133355E-15, 1.224646799147353207E-16, -1.000000000000000000 ) ) ;
#81 = VERTEX_POINT ( 'NONE', #62 ) ;
#82 = CC_DESIGN_PERSON_AND_ORGANIZATION_ASSIGNMENT ( #110, #191, ( #104 ) ) ;
#83 = CIRCLE ( 'NONE', #193, 2.590000000000034941 ) ;
#84 = CALENDAR_DATE ( 2021, 2, 12 ) ;
#85 = PERSON_AND_ORGANIZATION ( #211, #207 ) ;
#86 = LOCAL_TIME ( 13, 57, 13.00000000000000000, #119 ) ;
#87 = DATE_TIME_ROLE ( 'creation_date' ) ;
#88 = EDGE_LOOP ( 'NONE', ( #124 ) ) ;
#89 = ADVANCED_FACE ( 'NONE', ( #2 ), #185, .T. ) ;
#90 = ORIENTED_EDGE ( 'NONE', *, *, #230, .T. ) ;
#91 = CARTESIAN_POINT ( 'NONE',  ( 0.0000000000000000000, 0.0000000000000000000, 0.0000000000000000000 ) ) ;
#92 = PLANE ( 'NONE',  #186 ) ;
#93 = DIRECTION ( 'NONE',  ( -3.491481338843133355E-15, 1.224646799147353207E-16, -1.000000000000000000 ) ) ;
#94 = LOCAL_TIME ( 13, 57, 13.00000000000000000, #208 ) ;
#95 = DIRECTION ( 'NONE',  ( 3.491481338843133355E-15, -1.224646799147353207E-16, 1.000000000000000000 ) ) ;
#96 = CC_DESIGN_PERSON_AND_ORGANIZATION_ASSIGNMENT ( #85, #140, ( #205 ) ) ;
#97 = APPROVAL_DATE_TIME ( #218, #182 ) ;
#98 = DIRECTION ( 'NONE',  ( -3.491481338843133355E-15, 1.224646799147353207E-16, -1.000000000000000000 ) ) ;
#99 = DESIGN_CONTEXT ( 'detailed design', #12, 'design' ) ;
#100 = MANIFOLD_SOLID_BREP ( 'Corps-Déplacer/Copier1[2]', #66 ) ;
#101 =( NAMED_UNIT ( * ) PLANE_ANGLE_UNIT ( ) SI_UNIT ( $, .RADIAN. ) );
#102 = CARTESIAN_POINT ( 'NONE',  ( 1.396592535537252553E-15, 2.590000000000034941, 0.3999999999999997446 ) ) ;
#103 = EDGE_CURVE ( 'NONE', #192, #192, #23, .T. ) ;
#104 = PRODUCT_DEFINITION_FORMATION_WITH_SPECIFIED_SOURCE ( 'ANY', '', #163, .NOT_KNOWN. ) ;
#105 = PERSON_AND_ORGANIZATION ( #211, #207 ) ;
#106 = EDGE_LOOP ( 'NONE', ( #68 ) ) ;
#107 = CONICAL_SURFACE ( 'NONE', #156, 1.600000000000000977, 0.7853981633974512766 ) ;
#108 = DIRECTION ( 'NONE',  ( 0.0000000000000000000, 1.000000000000000000, 0.0000000000000000000 ) ) ;
#109 = FACE_OUTER_BOUND ( 'NONE', #144, .T. ) ;
#110 = PERSON_AND_ORGANIZATION ( #211, #207 ) ;
#111 = DIRECTION ( 'NONE',  ( -3.491481338843133355E-15, 1.224646799147353207E-16, -1.000000000000000000 ) ) ;
#112 = DIRECTION ( 'NONE',  ( 0.0000000000000000000, 1.000000000000000000, 0.0000000000000000000 ) ) ;
#113 = FACE_OUTER_BOUND ( 'NONE', #143, .T. ) ;
#114 = DIRECTION ( 'NONE',  ( 4.275831445896958607E-31, 1.000000000000000000, 1.224646799147353207E-16 ) ) ;
#115 = LOCAL_TIME ( 13, 57, 13.00000000000000000, #25 ) ;
#116 = APPLICATION_PROTOCOL_DEFINITION ( 'international standard', 'config_control_design', 1994, #15 ) ;
#117 = APPROVAL_DATE_TIME ( #32, #123 ) ;
#118 = EDGE_CURVE ( 'NONE', #158, #158, #160, .T. ) ;
#119 = COORDINATED_UNIVERSAL_TIME_OFFSET ( 1, 0, .AHEAD. ) ;
#120 = EDGE_LOOP ( 'NONE', ( #146 ) ) ;
#121 = CALENDAR_DATE ( 2021, 2, 12 ) ;
#122 = EDGE_LOOP ( 'NONE', ( #176 ) ) ;
#123 = APPROVAL ( #136, 'UNSPECIFIED' ) ;
#124 = ORIENTED_EDGE ( 'NONE', *, *, #103, .T. ) ;
#125 = AXIS2_PLACEMENT_3D ( 'NONE', #138, #174, #212 ) ;
#126 = ORIENTED_EDGE ( 'NONE', *, *, #214, .T. ) ;
#127 = DIRECTION ( 'NONE',  ( 0.0000000000000000000, 1.000000000000000000, 0.0000000000000000000 ) ) ;
#128 = CARTESIAN_POINT ( 'NONE',  ( -9.364070866514481738E-31, 3.284473924029518411E-32, -2.681976490132744670E-16 ) ) ;
#129 = CC_DESIGN_APPROVAL ( #123, ( #205 ) ) ;
#130 = CARTESIAN_POINT ( 'NONE',  ( 2.793185071074506684E-13, 1.199807826129472128E-32, 80.00000000000000000 ) ) ;
#131 = UNCERTAINTY_MEASURE_WITH_UNIT (LENGTH_MEASURE( 1.000000000000000082E-05 ), #175, 'distance_accuracy_value', 'NONE');
#132 = DIRECTION ( 'NONE',  ( -3.491481338843133355E-15, 1.224646799147353207E-16, -1.000000000000000000 ) ) ;
#133 = DIRECTION ( 'NONE',  ( -3.491481338843133355E-15, 1.224646799147353207E-16, -1.000000000000000000 ) ) ;
#134 = AXIS2_PLACEMENT_3D ( 'NONE', #128, #93, #4 ) ;
#135 = VERTEX_POINT ( 'NONE', #27 ) ;
#136 = APPROVAL_STATUS ( 'not_yet_approved' ) ;
#137 = CALENDAR_DATE ( 2021, 2, 12 ) ;
#138 = CARTESIAN_POINT ( 'NONE',  ( 0.0000000000000000000, 0.0000000000000000000, 0.0000000000000000000 ) ) ;
#139 = ADVANCED_FACE ( 'NONE', ( #18 ), #92, .F. ) ;
#140 = PERSON_AND_ORGANIZATION_ROLE ( 'creator' ) ;
#141 = PERSON_AND_ORGANIZATION_ROLE ( 'design_owner' ) ;
#142 = EDGE_LOOP ( 'NONE', ( #239 ) ) ;
#143 = EDGE_LOOP ( 'NONE', ( #126 ) ) ;
#144 = EDGE_LOOP ( 'NONE', ( #71 ) ) ;
#145 = AXIS2_PLACEMENT_3D ( 'NONE', #203, #95, #206 ) ;
#146 = ORIENTED_EDGE ( 'NONE', *, *, #118, .T. ) ;
#147 = PLANE ( 'NONE',  #145 ) ;
#148 = PERSON_AND_ORGANIZATION ( #211, #207 ) ;
#149 = DIRECTION ( 'NONE',  ( -3.491481338843133355E-15, 1.224646799147353207E-16, -1.000000000000000000 ) ) ;
#150 = LOCAL_TIME ( 13, 57, 13.00000000000000000, #39 ) ;
#151 = DIRECTION ( 'NONE',  ( -4.275831445896958607E-31, -1.000000000000000000, -1.224646799147353207E-16 ) ) ;
#152 = DIRECTION ( 'NONE',  ( 3.491481338843133355E-15, -1.224646799147353207E-16, 1.000000000000000000 ) ) ;
#153 = PERSON_AND_ORGANIZATION ( #211, #207 ) ;
#154 = CARTESIAN_POINT ( 'NONE',  ( 4.189777606611760026E-14, -1.469576158976823947E-15, 12.00000000000000000 ) ) ;
#155 = AXIS2_PLACEMENT_3D ( 'NONE', #73, #149, #224 ) ;
#156 = AXIS2_PLACEMENT_3D ( 'NONE', #44, #56, #127 ) ;
#157 = CYLINDRICAL_SURFACE ( 'NONE', #201, 1.999999999999996669 ) ;
#158 = VERTEX_POINT ( 'NONE', #190 ) ;
#159 = ADVANCED_FACE ( 'NONE', ( #242 ), #147, .T. ) ;
#160 = CIRCLE ( 'NONE', #50, 2.590000000000034941 ) ;
#161 = EDGE_CURVE ( 'NONE', #227, #227, #220, .T. ) ;
#162 = EDGE_LOOP ( 'NONE', ( #90 ) ) ;
#163 = PRODUCT ( '321744', '321744', '', ( #210 ) ) ;
#164 = CC_DESIGN_DATE_AND_TIME_ASSIGNMENT ( #213, #87, ( #205 ) ) ;
#165 = AXIS2_PLACEMENT_3D ( 'NONE', #76, #72, #188 ) ;
#166 = DIRECTION ( 'NONE',  ( 0.0000000000000000000, 1.000000000000000000, 0.0000000000000000000 ) ) ;
#167 = CARTESIAN_POINT ( 'NONE',  ( 4.189777606611760026E-14, -1.469576158976823947E-15, 12.00000000000000000 ) ) ;
#168 = CYLINDRICAL_SURFACE ( 'NONE', #234, 2.590000000000034941 ) ;
#169 = ADVANCED_FACE ( 'NONE', ( #202, #38 ), #179, .T. ) ;
#170 = PERSON_AND_ORGANIZATION ( #211, #207 ) ;
#171 = DIRECTION ( 'NONE',  ( 4.275831445896958607E-31, 1.000000000000000000, 1.224646799147353207E-16 ) ) ;
#172 = DIRECTION ( 'NONE',  ( 4.461613770781181563E-31, 1.000000000000000000, 1.255832632222575178E-16 ) ) ;
#173 = APPROVAL ( #184, 'UNSPECIFIED' ) ;
#174 = DIRECTION ( 'NONE',  ( 0.0000000000000000000, 0.0000000000000000000, 1.000000000000000000 ) ) ;
#175 =( LENGTH_UNIT ( ) NAMED_UNIT ( * ) SI_UNIT ( .MILLI., .METRE. ) );
#176 = ORIENTED_EDGE ( 'NONE', *, *, #161, .F. ) ;
#177 = CIRCLE ( 'NONE', #215, 1.999999999999992228 ) ;
#178 = EDGE_LOOP ( 'NONE', ( #35 ) ) ;
#179 = CONICAL_SURFACE ( 'NONE', #228, 2.590000000000034941, 0.5235987755983002589 ) ;
#180 = FACE_BOUND ( 'NONE', #88, .T. ) ;
#181 = FACE_OUTER_BOUND ( 'NONE', #236, .T. ) ;
#182 = APPROVAL ( #33, 'UNSPECIFIED' ) ;
#183 = FACE_OUTER_BOUND ( 'NONE', #106, .T. ) ;
#184 = APPROVAL_STATUS ( 'not_yet_approved' ) ;
#185 = PLANE ( 'NONE',  #37 ) ;
#186 = AXIS2_PLACEMENT_3D ( 'NONE', #17, #152, #151 ) ;
#187 = PERSON_AND_ORGANIZATION_ROLE ( 'classification_officer' ) ;
#188 = DIRECTION ( 'NONE',  ( 0.0000000000000000000, 1.000000000000000000, 0.0000000000000000000 ) ) ;
#189 = ADVANCED_BREP_SHAPE_REPRESENTATION ( '321744', ( #21, #100, #125 ), #195 ) ;
#190 = CARTESIAN_POINT ( 'NONE',  ( 4.189777606611760026E-14, 2.590000000000033609, 12.00000000000000000 ) ) ;
#191 = PERSON_AND_ORGANIZATION_ROLE ( 'creator' ) ;
#192 = VERTEX_POINT ( 'NONE', #209 ) ;
#193 = AXIS2_PLACEMENT_3D ( 'NONE', #53, #98, #172 ) ;
#194 = COORDINATED_UNIVERSAL_TIME_OFFSET ( 1, 0, .AHEAD. ) ;
#195 =( GEOMETRIC_REPRESENTATION_CONTEXT ( 3 ) GLOBAL_UNCERTAINTY_ASSIGNED_CONTEXT ( ( #131 ) ) GLOBAL_UNIT_ASSIGNED_CONTEXT ( ( #175, #101, #229 ) ) REPRESENTATION_CONTEXT ( 'NONE', 'WORKASPACE' ) );
#196 = EDGE_LOOP ( 'NONE', ( #216 ) ) ;
#197 = EDGE_LOOP ( 'NONE', ( #199 ) ) ;
#198 = EDGE_LOOP ( 'NONE', ( #11 ) ) ;
#199 = ORIENTED_EDGE ( 'NONE', *, *, #118, .F. ) ;
#200 = DIRECTION ( 'NONE',  ( -3.491481338843133355E-15, 1.224646799147353207E-16, -1.000000000000000000 ) ) ;
#201 = AXIS2_PLACEMENT_3D ( 'NONE', #231, #80, #114 ) ;
#202 = FACE_BOUND ( 'NONE', #162, .T. ) ;
#203 = CARTESIAN_POINT ( 'NONE',  ( 4.189777606611760026E-14, 1.942188918547130180E-32, 12.00000000000000000 ) ) ;
#204 = DIRECTION ( 'NONE',  ( 0.0000000000000000000, 1.000000000000000000, 0.0000000000000000000 ) ) ;
#205 = PRODUCT_DEFINITION ( 'UNKNOWN', '', #104, #99 ) ;
#206 = DIRECTION ( 'NONE',  ( -4.275831445896958607E-31, -1.000000000000000000, -1.224646799147353207E-16 ) ) ;
#207 = ORGANIZATION ( 'UNSPECIFIED', 'UNSPECIFIED', '' ) ;
#208 = COORDINATED_UNIVERSAL_TIME_OFFSET ( 1, 0, .AHEAD. ) ;
#209 = CARTESIAN_POINT ( 'NONE',  ( 2.793185071074506684E-13, 1.599999999999991207, 80.00000000000000000 ) ) ;
#210 = MECHANICAL_CONTEXT ( 'NONE', #15, 'mechanical' ) ;
#211 = PERSON ( 'UNSPECIFIED', 'UNSPECIFIED', 'UNSPECIFIED', ('UNSPECIFIED'), ('UNSPECIFIED'), ('UNSPECIFIED') ) ;
#212 = DIRECTION ( 'NONE',  ( 1.000000000000000000, 0.0000000000000000000, 0.0000000000000000000 ) ) ;
#213 = DATE_AND_TIME ( #121, #30 ) ;
#214 = EDGE_CURVE ( 'NONE', #81, #81, #34, .T. ) ;
#215 = AXIS2_PLACEMENT_3D ( 'NONE', #58, #57, #204 ) ;
#216 = ORIENTED_EDGE ( 'NONE', *, *, #1, .F. ) ;
#217 = ADVANCED_FACE ( 'NONE', ( #183, #226 ), #10, .T. ) ;
#218 = DATE_AND_TIME ( #84, #86 ) ;
#219 = PRODUCT_DEFINITION_SHAPE ( 'NONE', 'NONE',  #205 ) ;
#220 = CIRCLE ( 'NONE', #134, 2.190000000000033697 ) ;
#221 = DIRECTION ( 'NONE',  ( 4.275831445896958607E-31, 1.000000000000000000, 1.224646799147353207E-16 ) ) ;
#222 = SECURITY_CLASSIFICATION_LEVEL ( 'unclassified' ) ;
#223 = SECURITY_CLASSIFICATION ( '', '', #222 ) ;
#224 = DIRECTION ( 'NONE',  ( 0.0000000000000000000, 1.000000000000000000, 0.0000000000000000000 ) ) ;
#225 = DIRECTION ( 'NONE',  ( -3.491481338843133355E-15, 1.224646799147353207E-16, -1.000000000000000000 ) ) ;
#226 = FACE_BOUND ( 'NONE', #122, .T. ) ;
#227 = VERTEX_POINT ( 'NONE', #6 ) ;
#228 = AXIS2_PLACEMENT_3D ( 'NONE', #167, #111, #112 ) ;
#229 =( NAMED_UNIT ( * ) SI_UNIT ( $, .STERADIAN. ) SOLID_ANGLE_UNIT ( ) );
#230 = EDGE_CURVE ( 'NONE', #135, #135, #177, .T. ) ;
#231 = CARTESIAN_POINT ( 'NONE',  ( 0.0000000000000000000, 0.0000000000000000000, 0.0000000000000000000 ) ) ;
#232 = CALENDAR_DATE ( 2021, 2, 12 ) ;
#233 = ADVANCED_FACE ( 'NONE', ( #24, #113 ), #157, .T. ) ;
#234 = AXIS2_PLACEMENT_3D ( 'NONE', #91, #52, #171 ) ;
#235 = ORIENTED_EDGE ( 'NONE', *, *, #214, .F. ) ;
#236 = EDGE_LOOP ( 'NONE', ( #65 ) ) ;
#237 = CC_DESIGN_PERSON_AND_ORGANIZATION_ASSIGNMENT ( #148, #187, ( #223 ) ) ;
#238 = CC_DESIGN_APPROVAL ( #182, ( #104 ) ) ;
#239 = ORIENTED_EDGE ( 'NONE', *, *, #230, .F. ) ;
#240 = CC_DESIGN_DATE_AND_TIME_ASSIGNMENT ( #29, #63, ( #223 ) ) ;
#241 = PLANE ( 'NONE',  #70 ) ;
#242 = FACE_OUTER_BOUND ( 'NONE', #196, .T. ) ;
#243 = DIRECTION ( 'NONE',  ( 3.491481338843133355E-15, -1.224646799147353207E-16, 1.000000000000000000 ) ) ;
ENDSEC;
END-ISO-10303-21;
