ISO-10303-21;
HEADER;
FILE_DESCRIPTION (( 'STEP AP203' ),
    '1' );
FILE_NAME ('321743.step',
    '2021-12-02T12:57:12',
    ( '' ),
    ( '' ),
    'SwSTEP 2.0',
    'SolidWorks 2019',
    '' );
FILE_SCHEMA (( 'CONFIG_CONTROL_DESIGN' ));
ENDSEC;

DATA;
#1 = ORIENTED_EDGE ( 'NONE', *, *, #17, .F. ) ;
#2 = AXIS2_PLACEMENT_3D ( 'NONE', #81, #216, #111 ) ;
#3 = PERSON_AND_ORGANIZATION ( #166, #158 ) ;
#4 = EDGE_LOOP ( 'NONE', ( #139 ) ) ;
#5 = SECURITY_CLASSIFICATION_LEVEL ( 'unclassified' ) ;
#6 = CARTESIAN_POINT ( 'NONE',  ( 4.189777606611760026E-14, 1.938439519090475508E-32, 12.00000000000000000 ) ) ;
#7 = DIRECTION ( 'NONE',  ( -3.491481338843133355E-15, 1.224646799147353207E-16, -1.000000000000000000 ) ) ;
#8 = PLANE ( 'NONE',  #125 ) ;
#9 = DIRECTION ( 'NONE',  ( 0.0000000000000000000, 1.000000000000000000, 0.0000000000000000000 ) ) ;
#10 = AXIS2_PLACEMENT_3D ( 'NONE', #143, #221, #31 ) ;
#11 = CARTESIAN_POINT ( 'NONE',  ( 0.0000000000000000000, 0.0000000000000000000, 0.0000000000000000000 ) ) ;
#12 = MANIFOLD_SOLID_BREP ( 'Corps-Déplacer/Copier1[2]', #95 ) ;
#13 = DIRECTION ( 'NONE',  ( -3.491481338843133355E-15, 1.224646799147353207E-16, -1.000000000000000000 ) ) ;
#14 = ADVANCED_FACE ( 'NONE', ( #142, #54 ), #212, .T. ) ;
#15 = VERTEX_POINT ( 'NONE', #167 ) ;
#16 = CARTESIAN_POINT ( 'NONE',  ( 2.779219145719134403E-13, 1.999999999999991340, 79.60000000000000853 ) ) ;
#17 = EDGE_CURVE ( 'NONE', #15, #15, #85, .T. ) ;
#18 = DIRECTION ( 'NONE',  ( 4.275831445896958607E-31, 1.000000000000000000, 1.224646799147353207E-16 ) ) ;
#19 = DIRECTION ( 'NONE',  ( -4.275831445896958607E-31, -1.000000000000000000, -1.224646799147353207E-16 ) ) ;
#20 = ADVANCED_BREP_SHAPE_REPRESENTATION ( '321743', ( #173, #12, #24 ), #27 ) ;
#21 = APPROVAL_DATE_TIME ( #96, #206 ) ;
#22 = EDGE_LOOP ( 'NONE', ( #121 ) ) ;
#23 = ORIENTED_EDGE ( 'NONE', *, *, #215, .T. ) ;
#24 = AXIS2_PLACEMENT_3D ( 'NONE', #71, #146, #134 ) ;
#25 = PERSON_AND_ORGANIZATION_ROLE ( 'design_supplier' ) ;
#26 = ORIENTED_EDGE ( 'NONE', *, *, #90, .F. ) ;
#27 =( GEOMETRIC_REPRESENTATION_CONTEXT ( 3 ) GLOBAL_UNCERTAINTY_ASSIGNED_CONTEXT ( ( #138 ) ) GLOBAL_UNIT_ASSIGNED_CONTEXT ( ( #58, #209, #208 ) ) REPRESENTATION_CONTEXT ( 'NONE', 'WORKASPACE' ) );
#28 = ORIENTED_EDGE ( 'NONE', *, *, #17, .T. ) ;
#29 = FACE_OUTER_BOUND ( 'NONE', #42, .T. ) ;
#30 = DIRECTION ( 'NONE',  ( -3.491481338843133355E-15, 1.224646799147353207E-16, -1.000000000000000000 ) ) ;
#31 = DIRECTION ( 'NONE',  ( -4.275831445896959482E-31, -1.000000000000000000, -1.224646799147353207E-16 ) ) ;
#32 = EDGE_LOOP ( 'NONE', ( #1 ) ) ;
#33 = FACE_OUTER_BOUND ( 'NONE', #175, .T. ) ;
#34 = LOCAL_TIME ( 13, 57, 12.00000000000000000, #242 ) ;
#35 = AXIS2_PLACEMENT_3D ( 'NONE', #238, #169, #19 ) ;
#36 = DIRECTION ( 'NONE',  ( 0.0000000000000000000, 1.000000000000000000, 0.0000000000000000000 ) ) ;
#37 = CARTESIAN_POINT ( 'NONE',  ( 4.543551856356247596E-14, 1.999999999999990452, 13.01324972242786515 ) ) ;
#38 = APPLICATION_PROTOCOL_DEFINITION ( 'international standard', 'config_control_design', 1994, #92 ) ;
#39 = PERSON_AND_ORGANIZATION ( #166, #158 ) ;
#40 = APPROVAL_ROLE ( '' ) ;
#41 = AXIS2_PLACEMENT_3D ( 'NONE', #189, #188, #18 ) ;
#42 = EDGE_LOOP ( 'NONE', ( #23 ) ) ;
#43 = EDGE_CURVE ( 'NONE', #87, #87, #178, .T. ) ;
#44 = EDGE_LOOP ( 'NONE', ( #184 ) ) ;
#45 = EDGE_LOOP ( 'NONE', ( #109 ) ) ;
#46 = APPROVAL_STATUS ( 'not_yet_approved' ) ;
#47 = AXIS2_PLACEMENT_3D ( 'NONE', #220, #30, #128 ) ;
#48 = FACE_OUTER_BOUND ( 'NONE', #44, .T. ) ;
#49 = DIRECTION ( 'NONE',  ( -3.491481338843133355E-15, 1.224646799147353207E-16, -1.000000000000000000 ) ) ;
#50 = EDGE_CURVE ( 'NONE', #147, #147, #225, .T. ) ;
#51 = DIRECTION ( 'NONE',  ( 0.0000000000000000000, 1.000000000000000000, 0.0000000000000000000 ) ) ;
#52 = DIRECTION ( 'NONE',  ( -3.491481338843133355E-15, 1.224646799147353207E-16, -1.000000000000000000 ) ) ;
#53 = CC_DESIGN_DATE_AND_TIME_ASSIGNMENT ( #174, #99, ( #126 ) ) ;
#54 = FACE_OUTER_BOUND ( 'NONE', #32, .T. ) ;
#55 = DATE_AND_TIME ( #149, #83 ) ;
#56 = APPROVAL_DATE_TIME ( #55, #243 ) ;
#57 = SECURITY_CLASSIFICATION ( '', '', #5 ) ;
#58 =( LENGTH_UNIT ( ) NAMED_UNIT ( * ) SI_UNIT ( .MILLI., .METRE. ) );
#59 = CC_DESIGN_PERSON_AND_ORGANIZATION_ASSIGNMENT ( #230, #63, ( #211 ) ) ;
#60 = ORIENTED_EDGE ( 'NONE', *, *, #43, .T. ) ;
#61 = CONICAL_SURFACE ( 'NONE', #10, 2.185000000000033804, 0.7853981633974502774 ) ;
#62 = EDGE_LOOP ( 'NONE', ( #233 ) ) ;
#63 = PERSON_AND_ORGANIZATION_ROLE ( 'creator' ) ;
#64 = CYLINDRICAL_SURFACE ( 'NONE', #120, 2.585000000000035048 ) ;
#65 = CARTESIAN_POINT ( 'NONE',  ( 4.189777606611760026E-14, -1.469576158976823947E-15, 12.00000000000000000 ) ) ;
#66 = DIRECTION ( 'NONE',  ( 0.0000000000000000000, 1.000000000000000000, 0.0000000000000000000 ) ) ;
#67 = CONICAL_SURFACE ( 'NONE', #131, 1.600000000000000977, 0.7853981633974512766 ) ;
#68 = DIRECTION ( 'NONE',  ( -4.275831445896958607E-31, -1.000000000000000000, -1.224646799147353207E-16 ) ) ;
#69 = FACE_OUTER_BOUND ( 'NONE', #22, .T. ) ;
#70 = PERSON_AND_ORGANIZATION_ROLE ( 'design_owner' ) ;
#71 = CARTESIAN_POINT ( 'NONE',  ( 0.0000000000000000000, 0.0000000000000000000, 0.0000000000000000000 ) ) ;
#72 = VERTEX_POINT ( 'NONE', #113 ) ;
#73 = CC_DESIGN_DATE_AND_TIME_ASSIGNMENT ( #152, #191, ( #57 ) ) ;
#74 = CARTESIAN_POINT ( 'NONE',  ( 2.793185071074506684E-13, -9.797174393178826052E-15, 80.00000000000000000 ) ) ;
#75 = APPLICATION_PROTOCOL_DEFINITION ( 'international standard', 'config_control_design', 1994, #110 ) ;
#76 = PRODUCT_RELATED_PRODUCT_CATEGORY ( 'detail', '', ( #229 ) ) ;
#77 = PERSON_AND_ORGANIZATION_ROLE ( 'classification_officer' ) ;
#78 = AXIS2_PLACEMENT_3D ( 'NONE', #160, #84, #9 ) ;
#79 = EDGE_LOOP ( 'NONE', ( #28 ) ) ;
#80 = PLANE ( 'NONE',  #200 ) ;
#81 = CARTESIAN_POINT ( 'NONE',  ( 4.189777606611760026E-14, -1.469576158976823947E-15, 12.00000000000000000 ) ) ;
#82 = ORIENTED_EDGE ( 'NONE', *, *, #215, .F. ) ;
#83 = LOCAL_TIME ( 13, 57, 12.00000000000000000, #170 ) ;
#84 = DIRECTION ( 'NONE',  ( -3.491481338843133355E-15, 1.224646799147353207E-16, -1.000000000000000000 ) ) ;
#85 = CIRCLE ( 'NONE', #78, 2.585000000000035048 ) ;
#86 = FACE_BOUND ( 'NONE', #219, .T. ) ;
#87 = VERTEX_POINT ( 'NONE', #37 ) ;
#88 = DIRECTION ( 'NONE',  ( 4.275831445896958607E-31, 1.000000000000000000, 1.224646799147353207E-16 ) ) ;
#89 = LOCAL_TIME ( 13, 57, 12.00000000000000000, #195 ) ;
#90 = EDGE_CURVE ( 'NONE', #114, #114, #107, .T. ) ;
#91 = FACE_OUTER_BOUND ( 'NONE', #97, .T. ) ;
#92 = APPLICATION_CONTEXT ( 'configuration controlled 3d designs of mechanical parts and assemblies' ) ;
#93 = PERSON_AND_ORGANIZATION ( #166, #158 ) ;
#94 = CC_DESIGN_PERSON_AND_ORGANIZATION_ASSIGNMENT ( #190, #70, ( #229 ) ) ;
#95 = CLOSED_SHELL ( 'NONE', ( #151, #199, #179, #156 ) ) ;
#96 = DATE_AND_TIME ( #153, #132 ) ;
#97 = EDGE_LOOP ( 'NONE', ( #103 ) ) ;
#98 = CALENDAR_DATE ( 2021, 2, 12 ) ;
#99 = DATE_TIME_ROLE ( 'creation_date' ) ;
#100 = PRODUCT_DEFINITION_SHAPE ( 'NONE', 'NONE',  #126 ) ;
#101 = APPROVAL ( #227, 'UNSPECIFIED' ) ;
#102 = APPROVAL_ROLE ( '' ) ;
#103 = ORIENTED_EDGE ( 'NONE', *, *, #115, .F. ) ;
#104 = DIRECTION ( 'NONE',  ( 3.491481338843133355E-15, -1.224646799147353207E-16, 1.000000000000000000 ) ) ;
#105 = CC_DESIGN_APPROVAL ( #206, ( #211 ) ) ;
#106 = FACE_OUTER_BOUND ( 'NONE', #124, .T. ) ;
#107 = CIRCLE ( 'NONE', #112, 2.000000000000000888 ) ;
#108 = EDGE_LOOP ( 'NONE', ( #26 ) ) ;
#109 = ORIENTED_EDGE ( 'NONE', *, *, #115, .T. ) ;
#110 = APPLICATION_CONTEXT ( 'configuration controlled 3d designs of mechanical parts and assemblies' ) ;
#111 = DIRECTION ( 'NONE',  ( 0.0000000000000000000, 1.000000000000000000, 0.0000000000000000000 ) ) ;
#112 = AXIS2_PLACEMENT_3D ( 'NONE', #186, #140, #163 ) ;
#113 = CARTESIAN_POINT ( 'NONE',  ( -1.710569414459005214E-46, 2.185000000000033804, 0.0000000000000000000 ) ) ;
#114 = VERTEX_POINT ( 'NONE', #16 ) ;
#115 = EDGE_CURVE ( 'NONE', #239, #239, #181, .T. ) ;
#116 = FACE_BOUND ( 'NONE', #62, .T. ) ;
#117 = MECHANICAL_CONTEXT ( 'NONE', #92, 'mechanical' ) ;
#118 = PERSON_AND_ORGANIZATION ( #166, #158 ) ;
#119 = LOCAL_TIME ( 13, 57, 12.00000000000000000, #150 ) ;
#120 = AXIS2_PLACEMENT_3D ( 'NONE', #11, #202, #130 ) ;
#121 = ORIENTED_EDGE ( 'NONE', *, *, #165, .F. ) ;
#122 = CALENDAR_DATE ( 2021, 2, 12 ) ;
#123 = PERSON_AND_ORGANIZATION_ROLE ( 'creator' ) ;
#124 = EDGE_LOOP ( 'NONE', ( #217 ) ) ;
#125 = AXIS2_PLACEMENT_3D ( 'NONE', #6, #104, #68 ) ;
#126 = PRODUCT_DEFINITION ( 'UNKNOWN', '', #211, #197 ) ;
#127 = CYLINDRICAL_SURFACE ( 'NONE', #47, 1.999999999999996669 ) ;
#128 = DIRECTION ( 'NONE',  ( 4.275831445896958607E-31, 1.000000000000000000, 1.224646799147353207E-16 ) ) ;
#129 = FACE_OUTER_BOUND ( 'NONE', #4, .T. ) ;
#130 = DIRECTION ( 'NONE',  ( 4.275831445896958607E-31, 1.000000000000000000, 1.224646799147353454E-16 ) ) ;
#131 = AXIS2_PLACEMENT_3D ( 'NONE', #74, #13, #36 ) ;
#132 = LOCAL_TIME ( 13, 57, 12.00000000000000000, #228 ) ;
#133 = CC_DESIGN_PERSON_AND_ORGANIZATION_ASSIGNMENT ( #118, #25, ( #211 ) ) ;
#134 = DIRECTION ( 'NONE',  ( 1.000000000000000000, 0.0000000000000000000, 0.0000000000000000000 ) ) ;
#135 = CARTESIAN_POINT ( 'NONE',  ( 2.793185071074506684E-13, 1.599999999999991207, 80.00000000000000000 ) ) ;
#136 = AXIS2_PLACEMENT_3D ( 'NONE', #198, #196, #180 ) ;
#137 = ADVANCED_FACE ( 'NONE', ( #129, #48 ), #127, .T. ) ;
#138 = UNCERTAINTY_MEASURE_WITH_UNIT (LENGTH_MEASURE( 1.000000000000000082E-05 ), #58, 'distance_accuracy_value', 'NONE');
#139 = ORIENTED_EDGE ( 'NONE', *, *, #43, .F. ) ;
#140 = DIRECTION ( 'NONE',  ( -3.491481338843133355E-15, 1.224646799147353207E-16, -1.000000000000000000 ) ) ;
#141 = CARTESIAN_POINT ( 'NONE',  ( 4.543551856356247596E-14, -1.593663461907646627E-15, 13.01324972242786515 ) ) ;
#142 = FACE_BOUND ( 'NONE', #164, .T. ) ;
#143 = CARTESIAN_POINT ( 'NONE',  ( -9.342691709285000527E-31, 3.276975125116210163E-32, -2.675853256137008288E-16 ) ) ;
#144 = APPROVAL_ROLE ( '' ) ;
#145 = AXIS2_PLACEMENT_3D ( 'NONE', #162, #223, #88 ) ;
#146 = DIRECTION ( 'NONE',  ( 0.0000000000000000000, 0.0000000000000000000, 1.000000000000000000 ) ) ;
#147 = VERTEX_POINT ( 'NONE', #135 ) ;
#148 = CIRCLE ( 'NONE', #136, 2.585000000000035048 ) ;
#149 = CALENDAR_DATE ( 2021, 2, 12 ) ;
#150 = COORDINATED_UNIVERSAL_TIME_OFFSET ( 1, 0, .AHEAD. ) ;
#151 = ADVANCED_FACE ( 'NONE', ( #237, #69 ), #64, .T. ) ;
#152 = DATE_AND_TIME ( #122, #119 ) ;
#153 = CALENDAR_DATE ( 2021, 2, 12 ) ;
#154 = ADVANCED_FACE ( 'NONE', ( #159 ), #8, .F. ) ;
#155 = DATE_AND_TIME ( #177, #89 ) ;
#156 = ADVANCED_FACE ( 'NONE', ( #33, #86 ), #61, .T. ) ;
#157 = APPROVAL_DATE_TIME ( #155, #101 ) ;
#158 = ORGANIZATION ( 'UNSPECIFIED', 'UNSPECIFIED', '' ) ;
#159 = FACE_OUTER_BOUND ( 'NONE', #79, .T. ) ;
#160 = CARTESIAN_POINT ( 'NONE',  ( 4.189777606611760026E-14, -1.469576158976823947E-15, 12.00000000000000000 ) ) ;
#161 = CC_DESIGN_PERSON_AND_ORGANIZATION_ASSIGNMENT ( #176, #77, ( #57 ) ) ;
#162 = CARTESIAN_POINT ( 'NONE',  ( 2.793185071074506684E-13, 1.199807826129472128E-32, 80.00000000000000000 ) ) ;
#163 = DIRECTION ( 'NONE',  ( 0.0000000000000000000, 1.000000000000000000, 0.0000000000000000000 ) ) ;
#164 = EDGE_LOOP ( 'NONE', ( #60 ) ) ;
#165 = EDGE_CURVE ( 'NONE', #224, #224, #148, .T. ) ;
#166 = PERSON ( 'UNSPECIFIED', 'UNSPECIFIED', 'UNSPECIFIED', ('UNSPECIFIED'), ('UNSPECIFIED'), ('UNSPECIFIED') ) ;
#167 = CARTESIAN_POINT ( 'NONE',  ( 4.189777606611760026E-14, 2.585000000000033715, 12.00000000000000000 ) ) ;
#168 = AXIS2_PLACEMENT_3D ( 'NONE', #65, #52, #66 ) ;
#169 = DIRECTION ( 'NONE',  ( 3.491481338843133355E-15, -1.224646799147353207E-16, 1.000000000000000000 ) ) ;
#170 = COORDINATED_UNIVERSAL_TIME_OFFSET ( 1, 0, .AHEAD. ) ;
#171 = CC_DESIGN_SECURITY_CLASSIFICATION ( #57, ( #211 ) ) ;
#172 = CIRCLE ( 'NONE', #41, 2.185000000000033804 ) ;
#173 = MANIFOLD_SOLID_BREP ( 'Corps-Déplacer/Copier1[1]', #241 ) ;
#174 = DATE_AND_TIME ( #98, #34 ) ;
#175 = EDGE_LOOP ( 'NONE', ( #236 ) ) ;
#176 = PERSON_AND_ORGANIZATION ( #166, #158 ) ;
#177 = CALENDAR_DATE ( 2021, 2, 12 ) ;
#178 = CIRCLE ( 'NONE', #235, 1.999999999999992228 ) ;
#179 = ADVANCED_FACE ( 'NONE', ( #29 ), #80, .T. ) ;
#180 = DIRECTION ( 'NONE',  ( 4.470243584651163598E-31, 1.000000000000000000, 1.258261708880645667E-16 ) ) ;
#181 = CIRCLE ( 'NONE', #168, 2.585000000000035048 ) ;
#182 = PLANE ( 'NONE',  #145 ) ;
#183 = CARTESIAN_POINT ( 'NONE',  ( -4.671345854642500263E-31, 1.638487562558105081E-32, -1.337926628068504144E-16 ) ) ;
#184 = ORIENTED_EDGE ( 'NONE', *, *, #90, .T. ) ;
#185 = AXIS2_PLACEMENT_3D ( 'NONE', #203, #49, #232 ) ;
#186 = CARTESIAN_POINT ( 'NONE',  ( 2.779219145719134403E-13, -9.748188521212932624E-15, 79.60000000000000853 ) ) ;
#187 = CARTESIAN_POINT ( 'NONE',  ( 1.396592535537253342E-15, 2.585000000000035048, 0.3999999999999999667 ) ) ;
#188 = DIRECTION ( 'NONE',  ( -3.491481338843133355E-15, 1.224646799147353207E-16, -1.000000000000000000 ) ) ;
#189 = CARTESIAN_POINT ( 'NONE',  ( -9.342691709285000527E-31, 3.276975125116210163E-32, -2.675853256137008288E-16 ) ) ;
#190 = PERSON_AND_ORGANIZATION ( #166, #158 ) ;
#191 = DATE_TIME_ROLE ( 'classification_date' ) ;
#192 = ADVANCED_FACE ( 'NONE', ( #106 ), #182, .F. ) ;
#193 = SHAPE_DEFINITION_REPRESENTATION ( #100, #20 ) ;
#194 = APPROVAL_PERSON_ORGANIZATION ( #3, #206, #40 ) ;
#195 = COORDINATED_UNIVERSAL_TIME_OFFSET ( 1, 0, .AHEAD. ) ;
#196 = DIRECTION ( 'NONE',  ( -3.491481338843133355E-15, 1.224646799147353207E-16, -1.000000000000000000 ) ) ;
#197 = DESIGN_CONTEXT ( 'detailed design', #110, 'design' ) ;
#198 = CARTESIAN_POINT ( 'NONE',  ( 1.396592535537252159E-15, -4.898587196589408145E-17, 0.3999999999999996336 ) ) ;
#199 = ADVANCED_FACE ( 'NONE', ( #91 ), #204, .T. ) ;
#200 = AXIS2_PLACEMENT_3D ( 'NONE', #183, #201, #231 ) ;
#201 = DIRECTION ( 'NONE',  ( -3.491481338843133355E-15, 1.224646799147353207E-16, -1.000000000000000000 ) ) ;
#202 = DIRECTION ( 'NONE',  ( -3.491481338843133355E-15, 1.224646799147353207E-16, -1.000000000000000000 ) ) ;
#203 = CARTESIAN_POINT ( 'NONE',  ( 2.793185071074506684E-13, -9.797174393178826052E-15, 80.00000000000000000 ) ) ;
#204 = PLANE ( 'NONE',  #35 ) ;
#205 = FACE_OUTER_BOUND ( 'NONE', #108, .T. ) ;
#206 = APPROVAL ( #46, 'UNSPECIFIED' ) ;
#207 = CC_DESIGN_APPROVAL ( #101, ( #57 ) ) ;
#208 =( NAMED_UNIT ( * ) SI_UNIT ( $, .STERADIAN. ) SOLID_ANGLE_UNIT ( ) );
#209 =( NAMED_UNIT ( * ) PLANE_ANGLE_UNIT ( ) SI_UNIT ( $, .RADIAN. ) );
#210 = CC_DESIGN_PERSON_AND_ORGANIZATION_ASSIGNMENT ( #39, #123, ( #126 ) ) ;
#211 = PRODUCT_DEFINITION_FORMATION_WITH_SPECIFIED_SOURCE ( 'ANY', '', #229, .NOT_KNOWN. ) ;
#212 = CONICAL_SURFACE ( 'NONE', #2, 2.585000000000035048, 0.5235987755983000369 ) ;
#213 = PERSON_AND_ORGANIZATION ( #166, #158 ) ;
#214 = APPROVAL_PERSON_ORGANIZATION ( #213, #101, #102 ) ;
#215 = EDGE_CURVE ( 'NONE', #72, #72, #172, .T. ) ;
#216 = DIRECTION ( 'NONE',  ( -3.491481338843133355E-15, 1.224646799147353207E-16, -1.000000000000000000 ) ) ;
#217 = ORIENTED_EDGE ( 'NONE', *, *, #50, .F. ) ;
#218 = APPROVAL_PERSON_ORGANIZATION ( #93, #243, #144 ) ;
#219 = EDGE_LOOP ( 'NONE', ( #82 ) ) ;
#220 = CARTESIAN_POINT ( 'NONE',  ( 0.0000000000000000000, 0.0000000000000000000, 0.0000000000000000000 ) ) ;
#221 = DIRECTION ( 'NONE',  ( 3.491481338843133355E-15, -1.224646799147353207E-16, 1.000000000000000000 ) ) ;
#222 = CARTESIAN_POINT ( 'NONE',  ( 4.189777606611760026E-14, 2.585000000000033715, 12.00000000000000000 ) ) ;
#223 = DIRECTION ( 'NONE',  ( -3.491481338843133355E-15, 1.224646799147353207E-16, -1.000000000000000000 ) ) ;
#224 = VERTEX_POINT ( 'NONE', #187 ) ;
#225 = CIRCLE ( 'NONE', #185, 1.600000000000000977 ) ;
#226 = APPROVAL_STATUS ( 'not_yet_approved' ) ;
#227 = APPROVAL_STATUS ( 'not_yet_approved' ) ;
#228 = COORDINATED_UNIVERSAL_TIME_OFFSET ( 1, 0, .AHEAD. ) ;
#229 = PRODUCT ( '321743', '321743', '', ( #117 ) ) ;
#230 = PERSON_AND_ORGANIZATION ( #166, #158 ) ;
#231 = DIRECTION ( 'NONE',  ( 4.275831445896958607E-31, 1.000000000000000000, 1.224646799147353207E-16 ) ) ;
#232 = DIRECTION ( 'NONE',  ( 0.0000000000000000000, 1.000000000000000000, 0.0000000000000000000 ) ) ;
#233 = ORIENTED_EDGE ( 'NONE', *, *, #50, .T. ) ;
#234 = CC_DESIGN_APPROVAL ( #243, ( #126 ) ) ;
#235 = AXIS2_PLACEMENT_3D ( 'NONE', #141, #7, #51 ) ;
#236 = ORIENTED_EDGE ( 'NONE', *, *, #165, .T. ) ;
#237 = FACE_OUTER_BOUND ( 'NONE', #45, .T. ) ;
#238 = CARTESIAN_POINT ( 'NONE',  ( 4.189777606611760026E-14, 1.938439519090475508E-32, 12.00000000000000000 ) ) ;
#239 = VERTEX_POINT ( 'NONE', #222 ) ;
#240 = ADVANCED_FACE ( 'NONE', ( #205, #116 ), #67, .T. ) ;
#241 = CLOSED_SHELL ( 'NONE', ( #154, #14, #137, #240, #192 ) ) ;
#242 = COORDINATED_UNIVERSAL_TIME_OFFSET ( 1, 0, .AHEAD. ) ;
#243 = APPROVAL ( #226, 'UNSPECIFIED' ) ;
ENDSEC;
END-ISO-10303-21;
