ISO-10303-21;
HEADER;
FILE_DESCRIPTION (( 'STEP AP203' ),
    '1' );
FILE_NAME ('321742.step',
    '2021-12-02T12:57:11',
    ( '' ),
    ( '' ),
    'SwSTEP 2.0',
    'SolidWorks 2019',
    '' );
FILE_SCHEMA (( 'CONFIG_CONTROL_DESIGN' ));
ENDSEC;

DATA;
#1 = CONICAL_SURFACE ( 'NONE', #122, 2.580000000000035154, 0.5235987755983002589 ) ;
#2 = EDGE_LOOP ( 'NONE', ( #73 ) ) ;
#3 = EDGE_LOOP ( 'NONE', ( #204 ) ) ;
#4 = DIRECTION ( 'NONE',  ( 0.0000000000000000000, 1.000000000000000000, 0.0000000000000000000 ) ) ;
#5 = DIRECTION ( 'NONE',  ( 0.0000000000000000000, 1.000000000000000000, 0.0000000000000000000 ) ) ;
#6 = FACE_OUTER_BOUND ( 'NONE', #30, .T. ) ;
#7 = DIRECTION ( 'NONE',  ( -3.491481338843133355E-15, 1.224646799147353207E-16, -1.000000000000000000 ) ) ;
#8 = FACE_OUTER_BOUND ( 'NONE', #3, .T. ) ;
#9 = PERSON_AND_ORGANIZATION ( #16, #140 ) ;
#10 = AXIS2_PLACEMENT_3D ( 'NONE', #61, #87, #104 ) ;
#11 = APPROVAL_DATE_TIME ( #143, #233 ) ;
#12 = APPROVAL_DATE_TIME ( #215, #178 ) ;
#13 = CALENDAR_DATE ( 2021, 2, 12 ) ;
#14 = EDGE_CURVE ( 'NONE', #102, #102, #158, .T. ) ;
#15 = CIRCLE ( 'NONE', #136, 2.580000000000035154 ) ;
#16 = PERSON ( 'UNSPECIFIED', 'UNSPECIFIED', 'UNSPECIFIED', ('UNSPECIFIED'), ('UNSPECIFIED'), ('UNSPECIFIED') ) ;
#17 = EDGE_CURVE ( 'NONE', #18, #18, #75, .T. ) ;
#18 = VERTEX_POINT ( 'NONE', #135 ) ;
#19 = EDGE_LOOP ( 'NONE', ( #166 ) ) ;
#20 = CARTESIAN_POINT ( 'NONE',  ( -4.660656276027757031E-31, 1.634738163101449863E-32, -1.334865011070635459E-16 ) ) ;
#21 = CARTESIAN_POINT ( 'NONE',  ( 1.396592535537250581E-15, -4.898587196589402598E-17, 0.3999999999999991895 ) ) ;
#22 = AXIS2_PLACEMENT_3D ( 'NONE', #191, #114, #149 ) ;
#23 = DIRECTION ( 'NONE',  ( -3.491481338843133355E-15, 1.224646799147353207E-16, -1.000000000000000000 ) ) ;
#24 = DIRECTION ( 'NONE',  ( -4.275831445896958607E-31, -1.000000000000000000, -1.224646799147353207E-16 ) ) ;
#25 = CARTESIAN_POINT ( 'NONE',  ( 2.779219145719134403E-13, 1.999999999999991340, 79.60000000000000853 ) ) ;
#26 = ADVANCED_FACE ( 'NONE', ( #229, #6 ), #133, .T. ) ;
#27 = FACE_OUTER_BOUND ( 'NONE', #2, .T. ) ;
#28 = SECURITY_CLASSIFICATION ( '', '', #83 ) ;
#29 = APPROVAL_ROLE ( '' ) ;
#30 = EDGE_LOOP ( 'NONE', ( #124 ) ) ;
#31 = AXIS2_PLACEMENT_3D ( 'NONE', #197, #188, #52 ) ;
#32 = VERTEX_POINT ( 'NONE', #189 ) ;
#33 = FACE_BOUND ( 'NONE', #169, .T. ) ;
#34 = ADVANCED_FACE ( 'NONE', ( #155 ), #53, .T. ) ;
#35 = CARTESIAN_POINT ( 'NONE',  ( 2.779219145719134403E-13, -9.748188521212932624E-15, 79.60000000000000853 ) ) ;
#36 = CARTESIAN_POINT ( 'NONE',  ( 4.189777606611760026E-14, -1.469576158976823947E-15, 12.00000000000000000 ) ) ;
#37 = DIRECTION ( 'NONE',  ( 0.0000000000000000000, 1.000000000000000000, 0.0000000000000000000 ) ) ;
#38 =( NAMED_UNIT ( * ) SI_UNIT ( $, .STERADIAN. ) SOLID_ANGLE_UNIT ( ) );
#39 = CC_DESIGN_SECURITY_CLASSIFICATION ( #28, ( #198 ) ) ;
#40 = CC_DESIGN_PERSON_AND_ORGANIZATION_ASSIGNMENT ( #162, #159, ( #94 ) ) ;
#41 = PERSON_AND_ORGANIZATION ( #16, #140 ) ;
#42 = UNCERTAINTY_MEASURE_WITH_UNIT (LENGTH_MEASURE( 1.000000000000000082E-05 ), #202, 'distance_accuracy_value', 'NONE');
#43 = APPROVAL_ROLE ( '' ) ;
#44 = CALENDAR_DATE ( 2021, 2, 12 ) ;
#45 = APPLICATION_CONTEXT ( 'configuration controlled 3d designs of mechanical parts and assemblies' ) ;
#46 = ORIENTED_EDGE ( 'NONE', *, *, #99, .T. ) ;
#47 =( GEOMETRIC_REPRESENTATION_CONTEXT ( 3 ) GLOBAL_UNCERTAINTY_ASSIGNED_CONTEXT ( ( #42 ) ) GLOBAL_UNIT_ASSIGNED_CONTEXT ( ( #202, #86, #38 ) ) REPRESENTATION_CONTEXT ( 'NONE', 'WORKASPACE' ) );
#48 = ADVANCED_FACE ( 'NONE', ( #74, #33 ), #145, .T. ) ;
#49 = ORIENTED_EDGE ( 'NONE', *, *, #99, .F. ) ;
#50 = CARTESIAN_POINT ( 'NONE',  ( 4.189777606611760026E-14, -1.469576158976823947E-15, 12.00000000000000000 ) ) ;
#51 = ORIENTED_EDGE ( 'NONE', *, *, #14, .T. ) ;
#52 = DIRECTION ( 'NONE',  ( -4.275831445896959482E-31, -1.000000000000000000, -1.224646799147353207E-16 ) ) ;
#53 = PLANE ( 'NONE',  #217 ) ;
#54 = AXIS2_PLACEMENT_3D ( 'NONE', #170, #112, #132 ) ;
#55 = CARTESIAN_POINT ( 'NONE',  ( 2.793185071074506684E-13, 1.199807826129472128E-32, 80.00000000000000000 ) ) ;
#56 = FACE_OUTER_BOUND ( 'NONE', #68, .T. ) ;
#57 = DIRECTION ( 'NONE',  ( 0.0000000000000000000, 1.000000000000000000, 0.0000000000000000000 ) ) ;
#58 = ADVANCED_FACE ( 'NONE', ( #230 ), #93, .F. ) ;
#59 = VERTEX_POINT ( 'NONE', #25 ) ;
#60 = APPROVAL_PERSON_ORGANIZATION ( #88, #220, #64 ) ;
#61 = CARTESIAN_POINT ( 'NONE',  ( 0.0000000000000000000, 0.0000000000000000000, 0.0000000000000000000 ) ) ;
#62 = AXIS2_PLACEMENT_3D ( 'NONE', #228, #168, #172 ) ;
#63 = DATE_AND_TIME ( #44, #90 ) ;
#64 = APPROVAL_ROLE ( '' ) ;
#65 = PERSON_AND_ORGANIZATION ( #16, #140 ) ;
#66 = CIRCLE ( 'NONE', #160, 2.000000000000000888 ) ;
#67 = APPLICATION_PROTOCOL_DEFINITION ( 'international standard', 'config_control_design', 1994, #45 ) ;
#68 = EDGE_LOOP ( 'NONE', ( #227 ) ) ;
#69 = CC_DESIGN_APPROVAL ( #178, ( #198 ) ) ;
#70 = ORIENTED_EDGE ( 'NONE', *, *, #103, .T. ) ;
#71 = ORIENTED_EDGE ( 'NONE', *, *, #201, .F. ) ;
#72 = DIRECTION ( 'NONE',  ( -3.491481338843133355E-15, 1.224646799147353207E-16, -1.000000000000000000 ) ) ;
#73 = ORIENTED_EDGE ( 'NONE', *, *, #103, .F. ) ;
#74 = FACE_OUTER_BOUND ( 'NONE', #127, .T. ) ;
#75 = CIRCLE ( 'NONE', #151, 2.580000000000034710 ) ;
#76 = PLANE ( 'NONE',  #54 ) ;
#77 = CARTESIAN_POINT ( 'NONE',  ( 2.793185071074506684E-13, -9.797174393178826052E-15, 80.00000000000000000 ) ) ;
#78 = FACE_BOUND ( 'NONE', #92, .T. ) ;
#79 = DIRECTION ( 'NONE',  ( 4.275831445896957731E-31, 1.000000000000000000, 1.224646799147353207E-16 ) ) ;
#80 = PRODUCT_RELATED_PRODUCT_CATEGORY ( 'detail', '', ( #94 ) ) ;
#81 = DATE_TIME_ROLE ( 'creation_date' ) ;
#82 = CONICAL_SURFACE ( 'NONE', #31, 2.180000000000033467, 0.7853981633974502774 ) ;
#83 = SECURITY_CLASSIFICATION_LEVEL ( 'unclassified' ) ;
#84 = AXIS2_PLACEMENT_3D ( 'NONE', #55, #210, #173 ) ;
#85 = LOCAL_TIME ( 13, 57, 11.00000000000000000, #108 ) ;
#86 =( NAMED_UNIT ( * ) PLANE_ANGLE_UNIT ( ) SI_UNIT ( $, .RADIAN. ) );
#87 = DIRECTION ( 'NONE',  ( 0.0000000000000000000, 0.0000000000000000000, 1.000000000000000000 ) ) ;
#88 = PERSON_AND_ORGANIZATION ( #16, #140 ) ;
#89 = CLOSED_SHELL ( 'NONE', ( #26, #109, #34, #141 ) ) ;
#90 = LOCAL_TIME ( 13, 57, 11.00000000000000000, #224 ) ;
#91 = EDGE_CURVE ( 'NONE', #59, #59, #66, .T. ) ;
#92 = EDGE_LOOP ( 'NONE', ( #71 ) ) ;
#93 = PLANE ( 'NONE',  #84 ) ;
#94 = PRODUCT ( '321742', '321742', '', ( #184 ) ) ;
#95 = CYLINDRICAL_SURFACE ( 'NONE', #62, 1.999999999999996669 ) ;
#96 = CARTESIAN_POINT ( 'NONE',  ( 0.0000000000000000000, 0.0000000000000000000, 0.0000000000000000000 ) ) ;
#97 = CIRCLE ( 'NONE', #205, 2.580000000000035154 ) ;
#98 = VERTEX_POINT ( 'NONE', #154 ) ;
#99 = EDGE_CURVE ( 'NONE', #98, #98, #15, .T. ) ;
#100 = APPLICATION_CONTEXT ( 'configuration controlled 3d designs of mechanical parts and assemblies' ) ;
#101 = DIRECTION ( 'NONE',  ( -3.491481338843133355E-15, 1.224646799147353207E-16, -1.000000000000000000 ) ) ;
#102 = VERTEX_POINT ( 'NONE', #129 ) ;
#103 = EDGE_CURVE ( 'NONE', #209, #209, #195, .T. ) ;
#104 = DIRECTION ( 'NONE',  ( 1.000000000000000000, 0.0000000000000000000, 0.0000000000000000000 ) ) ;
#105 = COORDINATED_UNIVERSAL_TIME_OFFSET ( 1, 0, .AHEAD. ) ;
#106 = PERSON_AND_ORGANIZATION ( #16, #140 ) ;
#107 = ORIENTED_EDGE ( 'NONE', *, *, #201, .T. ) ;
#108 = COORDINATED_UNIVERSAL_TIME_OFFSET ( 1, 0, .AHEAD. ) ;
#109 = ADVANCED_FACE ( 'NONE', ( #190 ), #212, .T. ) ;
#110 = CC_DESIGN_DATE_AND_TIME_ASSIGNMENT ( #221, #81, ( #176 ) ) ;
#111 = DIRECTION ( 'NONE',  ( 4.275831445896958607E-31, 1.000000000000000000, 1.224646799147353207E-16 ) ) ;
#112 = DIRECTION ( 'NONE',  ( 3.491481338843133355E-15, -1.224646799147353207E-16, 1.000000000000000000 ) ) ;
#113 = DIRECTION ( 'NONE',  ( -3.491481338843133355E-15, 1.224646799147353207E-16, -1.000000000000000000 ) ) ;
#114 = DIRECTION ( 'NONE',  ( -3.491481338843133355E-15, 1.224646799147353207E-16, -1.000000000000000000 ) ) ;
#115 = CARTESIAN_POINT ( 'NONE',  ( 4.189777606611760026E-14, 1.934690119633820563E-32, 12.00000000000000000 ) ) ;
#116 = CLOSED_SHELL ( 'NONE', ( #167, #242, #120, #48, #58 ) ) ;
#117 = PERSON_AND_ORGANIZATION ( #16, #140 ) ;
#118 = AXIS2_PLACEMENT_3D ( 'NONE', #225, #101, #211 ) ;
#119 = SHAPE_DEFINITION_REPRESENTATION ( #142, #241 ) ;
#120 = ADVANCED_FACE ( 'NONE', ( #27, #223 ), #95, .T. ) ;
#121 = APPLICATION_PROTOCOL_DEFINITION ( 'international standard', 'config_control_design', 1994, #100 ) ;
#122 = AXIS2_PLACEMENT_3D ( 'NONE', #36, #23, #148 ) ;
#123 = PERSON_AND_ORGANIZATION_ROLE ( 'creator' ) ;
#124 = ORIENTED_EDGE ( 'NONE', *, *, #17, .F. ) ;
#125 = EDGE_LOOP ( 'NONE', ( #243 ) ) ;
#126 = CIRCLE ( 'NONE', #22, 2.180000000000033467 ) ;
#127 = EDGE_LOOP ( 'NONE', ( #186 ) ) ;
#128 = EDGE_LOOP ( 'NONE', ( #46 ) ) ;
#129 = CARTESIAN_POINT ( 'NONE',  ( 2.793185071074506684E-13, 1.599999999999991207, 80.00000000000000000 ) ) ;
#130 = CC_DESIGN_APPROVAL ( #220, ( #28 ) ) ;
#131 = CARTESIAN_POINT ( 'NONE',  ( 4.189777606611760026E-14, -1.469576158976823947E-15, 12.00000000000000000 ) ) ;
#132 = DIRECTION ( 'NONE',  ( -4.275831445896958607E-31, -1.000000000000000000, -1.224646799147353207E-16 ) ) ;
#133 = CYLINDRICAL_SURFACE ( 'NONE', #194, 2.580000000000034710 ) ;
#134 = DIRECTION ( 'NONE',  ( -3.491481338843133355E-15, 1.224646799147353207E-16, -1.000000000000000000 ) ) ;
#135 = CARTESIAN_POINT ( 'NONE',  ( 1.396592535537251764E-15, 2.580000000000034710, 0.3999999999999995226 ) ) ;
#136 = AXIS2_PLACEMENT_3D ( 'NONE', #131, #232, #57 ) ;
#137 = APPROVAL_DATE_TIME ( #63, #220 ) ;
#138 = CC_DESIGN_DATE_AND_TIME_ASSIGNMENT ( #238, #236, ( #28 ) ) ;
#139 = APPROVAL_STATUS ( 'not_yet_approved' ) ;
#140 = ORGANIZATION ( 'UNSPECIFIED', 'UNSPECIFIED', '' ) ;
#141 = ADVANCED_FACE ( 'NONE', ( #193, #78 ), #82, .T. ) ;
#142 = PRODUCT_DEFINITION_SHAPE ( 'NONE', 'NONE',  #176 ) ;
#143 = DATE_AND_TIME ( #185, #85 ) ;
#144 = EDGE_LOOP ( 'NONE', ( #70 ) ) ;
#145 = CONICAL_SURFACE ( 'NONE', #180, 1.600000000000000977, 0.7853981633974512766 ) ;
#146 = LOCAL_TIME ( 13, 57, 11.00000000000000000, #105 ) ;
#147 = EDGE_LOOP ( 'NONE', ( #107 ) ) ;
#148 = DIRECTION ( 'NONE',  ( 0.0000000000000000000, 1.000000000000000000, 0.0000000000000000000 ) ) ;
#149 = DIRECTION ( 'NONE',  ( 4.275831445896959482E-31, 1.000000000000000000, 1.224646799147353207E-16 ) ) ;
#150 = EDGE_LOOP ( 'NONE', ( #49 ) ) ;
#151 = AXIS2_PLACEMENT_3D ( 'NONE', #21, #7, #175 ) ;
#152 = DIRECTION ( 'NONE',  ( -3.491481338843133355E-15, 1.224646799147353207E-16, -1.000000000000000000 ) ) ;
#153 = DIRECTION ( 'NONE',  ( 0.0000000000000000000, 1.000000000000000000, 0.0000000000000000000 ) ) ;
#154 = CARTESIAN_POINT ( 'NONE',  ( 4.189777606611760026E-14, 2.580000000000033822, 12.00000000000000000 ) ) ;
#155 = FACE_OUTER_BOUND ( 'NONE', #147, .T. ) ;
#156 = EDGE_CURVE ( 'NONE', #234, #234, #97, .T. ) ;
#157 = PERSON_AND_ORGANIZATION_ROLE ( 'design_supplier' ) ;
#158 = CIRCLE ( 'NONE', #118, 1.600000000000000977 ) ;
#159 = PERSON_AND_ORGANIZATION_ROLE ( 'design_owner' ) ;
#160 = AXIS2_PLACEMENT_3D ( 'NONE', #35, #235, #153 ) ;
#161 = CALENDAR_DATE ( 2021, 2, 12 ) ;
#162 = PERSON_AND_ORGANIZATION ( #16, #140 ) ;
#163 = AXIS2_PLACEMENT_3D ( 'NONE', #115, #196, #24 ) ;
#164 = MANIFOLD_SOLID_BREP ( 'Corps-Déplacer/Copier1[1]', #116 ) ;
#165 = MANIFOLD_SOLID_BREP ( 'Corps-Déplacer/Copier1[2]', #89 ) ;
#166 = ORIENTED_EDGE ( 'NONE', *, *, #91, .T. ) ;
#167 = ADVANCED_FACE ( 'NONE', ( #8 ), #76, .F. ) ;
#168 = DIRECTION ( 'NONE',  ( -3.491481338843133355E-15, 1.224646799147353207E-16, -1.000000000000000000 ) ) ;
#169 = EDGE_LOOP ( 'NONE', ( #51 ) ) ;
#170 = CARTESIAN_POINT ( 'NONE',  ( 4.189777606611760026E-14, 1.934690119633820563E-32, 12.00000000000000000 ) ) ;
#171 = DIRECTION ( 'NONE',  ( -3.491481338843133355E-15, 1.224646799147353207E-16, -1.000000000000000000 ) ) ;
#172 = DIRECTION ( 'NONE',  ( 4.275831445896958607E-31, 1.000000000000000000, 1.224646799147353207E-16 ) ) ;
#173 = DIRECTION ( 'NONE',  ( 4.275831445896958607E-31, 1.000000000000000000, 1.224646799147353207E-16 ) ) ;
#174 = CARTESIAN_POINT ( 'NONE',  ( 4.540528144819970092E-14, 1.999999999999990452, 13.00458946839001939 ) ) ;
#175 = DIRECTION ( 'NONE',  ( 4.478906847412116155E-31, 1.000000000000000000, 1.260700200564523081E-16 ) ) ;
#176 = PRODUCT_DEFINITION ( 'UNKNOWN', '', #198, #206 ) ;
#177 = CARTESIAN_POINT ( 'NONE',  ( 4.189777606611760026E-14, 2.580000000000033822, 12.00000000000000000 ) ) ;
#178 = APPROVAL ( #139, 'UNSPECIFIED' ) ;
#179 = COORDINATED_UNIVERSAL_TIME_OFFSET ( 1, 0, .AHEAD. ) ;
#180 = AXIS2_PLACEMENT_3D ( 'NONE', #77, #152, #4 ) ;
#181 = APPROVAL_PERSON_ORGANIZATION ( #117, #178, #29 ) ;
#182 = COORDINATED_UNIVERSAL_TIME_OFFSET ( 1, 0, .AHEAD. ) ;
#183 = PERSON_AND_ORGANIZATION_ROLE ( 'classification_officer' ) ;
#184 = MECHANICAL_CONTEXT ( 'NONE', #100, 'mechanical' ) ;
#185 = CALENDAR_DATE ( 2021, 2, 12 ) ;
#186 = ORIENTED_EDGE ( 'NONE', *, *, #91, .F. ) ;
#187 = EDGE_LOOP ( 'NONE', ( #207 ) ) ;
#188 = DIRECTION ( 'NONE',  ( 3.491481338843133355E-15, -1.224646799147353207E-16, 1.000000000000000000 ) ) ;
#189 = CARTESIAN_POINT ( 'NONE',  ( 0.0000000000000000000, 2.180000000000033467, 0.0000000000000000000 ) ) ;
#190 = FACE_OUTER_BOUND ( 'NONE', #150, .T. ) ;
#191 = CARTESIAN_POINT ( 'NONE',  ( -9.321312552055514061E-31, 3.269476326202899725E-32, -2.669730022141270919E-16 ) ) ;
#192 = CARTESIAN_POINT ( 'NONE',  ( 4.540528144819970092E-14, -1.592602886668921780E-15, 13.00458946839001939 ) ) ;
#193 = FACE_OUTER_BOUND ( 'NONE', #187, .T. ) ;
#194 = AXIS2_PLACEMENT_3D ( 'NONE', #96, #113, #79 ) ;
#195 = CIRCLE ( 'NONE', #218, 1.999999999999992228 ) ;
#196 = DIRECTION ( 'NONE',  ( 3.491481338843133355E-15, -1.224646799147353207E-16, 1.000000000000000000 ) ) ;
#197 = CARTESIAN_POINT ( 'NONE',  ( -9.321312552055514061E-31, 3.269476326202899725E-32, -2.669730022141270919E-16 ) ) ;
#198 = PRODUCT_DEFINITION_FORMATION_WITH_SPECIFIED_SOURCE ( 'ANY', '', #94, .NOT_KNOWN. ) ;
#199 = CC_DESIGN_PERSON_AND_ORGANIZATION_ASSIGNMENT ( #9, #239, ( #198 ) ) ;
#200 = APPROVAL_STATUS ( 'not_yet_approved' ) ;
#201 = EDGE_CURVE ( 'NONE', #32, #32, #126, .T. ) ;
#202 =( LENGTH_UNIT ( ) NAMED_UNIT ( * ) SI_UNIT ( .MILLI., .METRE. ) );
#203 = CALENDAR_DATE ( 2021, 2, 12 ) ;
#204 = ORIENTED_EDGE ( 'NONE', *, *, #156, .T. ) ;
#205 = AXIS2_PLACEMENT_3D ( 'NONE', #50, #72, #5 ) ;
#206 = DESIGN_CONTEXT ( 'detailed design', #45, 'design' ) ;
#207 = ORIENTED_EDGE ( 'NONE', *, *, #17, .T. ) ;
#208 = APPROVAL_PERSON_ORGANIZATION ( #65, #233, #43 ) ;
#209 = VERTEX_POINT ( 'NONE', #174 ) ;
#210 = DIRECTION ( 'NONE',  ( -3.491481338843133355E-15, 1.224646799147353207E-16, -1.000000000000000000 ) ) ;
#211 = DIRECTION ( 'NONE',  ( 0.0000000000000000000, 1.000000000000000000, 0.0000000000000000000 ) ) ;
#212 = PLANE ( 'NONE',  #163 ) ;
#213 = CC_DESIGN_PERSON_AND_ORGANIZATION_ASSIGNMENT ( #41, #183, ( #28 ) ) ;
#214 = LOCAL_TIME ( 13, 57, 11.00000000000000000, #182 ) ;
#215 = DATE_AND_TIME ( #161, #222 ) ;
#216 = CC_DESIGN_PERSON_AND_ORGANIZATION_ASSIGNMENT ( #219, #123, ( #176 ) ) ;
#217 = AXIS2_PLACEMENT_3D ( 'NONE', #20, #171, #111 ) ;
#218 = AXIS2_PLACEMENT_3D ( 'NONE', #192, #134, #37 ) ;
#219 = PERSON_AND_ORGANIZATION ( #16, #140 ) ;
#220 = APPROVAL ( #240, 'UNSPECIFIED' ) ;
#221 = DATE_AND_TIME ( #203, #146 ) ;
#222 = LOCAL_TIME ( 13, 57, 11.00000000000000000, #179 ) ;
#223 = FACE_OUTER_BOUND ( 'NONE', #19, .T. ) ;
#224 = COORDINATED_UNIVERSAL_TIME_OFFSET ( 1, 0, .AHEAD. ) ;
#225 = CARTESIAN_POINT ( 'NONE',  ( 2.793185071074506684E-13, -9.797174393178826052E-15, 80.00000000000000000 ) ) ;
#226 = CC_DESIGN_APPROVAL ( #233, ( #176 ) ) ;
#227 = ORIENTED_EDGE ( 'NONE', *, *, #156, .F. ) ;
#228 = CARTESIAN_POINT ( 'NONE',  ( 0.0000000000000000000, 0.0000000000000000000, 0.0000000000000000000 ) ) ;
#229 = FACE_OUTER_BOUND ( 'NONE', #128, .T. ) ;
#230 = FACE_OUTER_BOUND ( 'NONE', #125, .T. ) ;
#231 = FACE_BOUND ( 'NONE', #144, .T. ) ;
#232 = DIRECTION ( 'NONE',  ( -3.491481338843133355E-15, 1.224646799147353207E-16, -1.000000000000000000 ) ) ;
#233 = APPROVAL ( #200, 'UNSPECIFIED' ) ;
#234 = VERTEX_POINT ( 'NONE', #177 ) ;
#235 = DIRECTION ( 'NONE',  ( -3.491481338843133355E-15, 1.224646799147353207E-16, -1.000000000000000000 ) ) ;
#236 = DATE_TIME_ROLE ( 'classification_date' ) ;
#237 = CC_DESIGN_PERSON_AND_ORGANIZATION_ASSIGNMENT ( #106, #157, ( #198 ) ) ;
#238 = DATE_AND_TIME ( #13, #214 ) ;
#239 = PERSON_AND_ORGANIZATION_ROLE ( 'creator' ) ;
#240 = APPROVAL_STATUS ( 'not_yet_approved' ) ;
#241 = ADVANCED_BREP_SHAPE_REPRESENTATION ( '321742', ( #164, #165, #10 ), #47 ) ;
#242 = ADVANCED_FACE ( 'NONE', ( #231, #56 ), #1, .T. ) ;
#243 = ORIENTED_EDGE ( 'NONE', *, *, #14, .F. ) ;
ENDSEC;
END-ISO-10303-21;
