ISO-10303-21;
HEADER;
FILE_DESCRIPTION (( 'STEP AP203' ),
    '1' );
FILE_NAME ('321741.step',
    '2021-12-02T12:57:11',
    ( '' ),
    ( '' ),
    'SwSTEP 2.0',
    'SolidWorks 2019',
    '' );
FILE_SCHEMA (( 'CONFIG_CONTROL_DESIGN' ));
ENDSEC;

DATA;
#1 = CIRCLE ( 'NONE', #142, 1.600000000000000977 ) ;
#2 = APPLICATION_PROTOCOL_DEFINITION ( 'international standard', 'config_control_design', 1994, #117 ) ;
#3 = APPROVAL_STATUS ( 'not_yet_approved' ) ;
#4 = ORIENTED_EDGE ( 'NONE', *, *, #123, .F. ) ;
#5 = CALENDAR_DATE ( 2021, 2, 12 ) ;
#6 = EDGE_LOOP ( 'NONE', ( #232 ) ) ;
#7 = EDGE_LOOP ( 'NONE', ( #140 ) ) ;
#8 = AXIS2_PLACEMENT_3D ( 'NONE', #178, #163, #112 ) ;
#9 = DIRECTION ( 'NONE',  ( -3.491481338843133355E-15, 1.224646799147353207E-16, -1.000000000000000000 ) ) ;
#10 = DIRECTION ( 'NONE',  ( -3.491481338843133355E-15, 1.224646799147353207E-16, -1.000000000000000000 ) ) ;
#11 =( GEOMETRIC_REPRESENTATION_CONTEXT ( 3 ) GLOBAL_UNCERTAINTY_ASSIGNED_CONTEXT ( ( #185 ) ) GLOBAL_UNIT_ASSIGNED_CONTEXT ( ( #23, #102, #38 ) ) REPRESENTATION_CONTEXT ( 'NONE', 'WORKASPACE' ) );
#12 = CC_DESIGN_PERSON_AND_ORGANIZATION_ASSIGNMENT ( #138, #104, ( #92 ) ) ;
#13 = DIRECTION ( 'NONE',  ( -3.491481338843133355E-15, 1.224646799147353207E-16, -1.000000000000000000 ) ) ;
#14 = DIRECTION ( 'NONE',  ( -3.491481338843133355E-15, 1.224646799147353207E-16, -1.000000000000000000 ) ) ;
#15 = CARTESIAN_POINT ( 'NONE',  ( 2.793185071074506684E-13, -9.797174393178826052E-15, 80.00000000000000000 ) ) ;
#16 = LOCAL_TIME ( 13, 57, 11.00000000000000000, #80 ) ;
#17 = CALENDAR_DATE ( 2021, 2, 12 ) ;
#18 = CALENDAR_DATE ( 2021, 2, 12 ) ;
#19 = PRODUCT_DEFINITION ( 'UNKNOWN', '', #92, #164 ) ;
#20 = PERSON_AND_ORGANIZATION_ROLE ( 'design_owner' ) ;
#21 = APPROVAL_ROLE ( '' ) ;
#22 = AXIS2_PLACEMENT_3D ( 'NONE', #65, #10, #220 ) ;
#23 =( LENGTH_UNIT ( ) NAMED_UNIT ( * ) SI_UNIT ( .MILLI., .METRE. ) );
#24 = CC_DESIGN_PERSON_AND_ORGANIZATION_ASSIGNMENT ( #167, #72, ( #19 ) ) ;
#25 = CIRCLE ( 'NONE', #159, 2.000000000000000888 ) ;
#26 = SECURITY_CLASSIFICATION_LEVEL ( 'unclassified' ) ;
#27 = EDGE_LOOP ( 'NONE', ( #230 ) ) ;
#28 = DIRECTION ( 'NONE',  ( 0.0000000000000000000, 1.000000000000000000, 0.0000000000000000000 ) ) ;
#29 = DIRECTION ( 'NONE',  ( -3.491481338843133355E-15, 1.224646799147353207E-16, -1.000000000000000000 ) ) ;
#30 = FACE_BOUND ( 'NONE', #62, .T. ) ;
#31 = PLANE ( 'NONE',  #219 ) ;
#32 = FACE_OUTER_BOUND ( 'NONE', #7, .T. ) ;
#33 = PRODUCT_RELATED_PRODUCT_CATEGORY ( 'detail', '', ( #70 ) ) ;
#34 = APPROVAL_STATUS ( 'not_yet_approved' ) ;
#35 = AXIS2_PLACEMENT_3D ( 'NONE', #221, #108, #201 ) ;
#36 = DATE_AND_TIME ( #204, #194 ) ;
#37 = CC_DESIGN_SECURITY_CLASSIFICATION ( #225, ( #92 ) ) ;
#38 =( NAMED_UNIT ( * ) SI_UNIT ( $, .STERADIAN. ) SOLID_ANGLE_UNIT ( ) );
#39 = CARTESIAN_POINT ( 'NONE',  ( 0.0000000000000000000, 2.175000000000033129, 0.0000000000000000000 ) ) ;
#40 = ORIENTED_EDGE ( 'NONE', *, *, #54, .T. ) ;
#41 = EDGE_LOOP ( 'NONE', ( #228 ) ) ;
#42 = EDGE_LOOP ( 'NONE', ( #64 ) ) ;
#43 = CARTESIAN_POINT ( 'NONE',  ( -9.299933394826025844E-31, 3.261977527289590383E-32, -2.663606788145534043E-16 ) ) ;
#44 = CC_DESIGN_APPROVAL ( #155, ( #225 ) ) ;
#45 = DIRECTION ( 'NONE',  ( -3.491481338843133355E-15, 1.224646799147353207E-16, -1.000000000000000000 ) ) ;
#46 = EDGE_CURVE ( 'NONE', #114, #114, #154, .T. ) ;
#47 = CARTESIAN_POINT ( 'NONE',  ( 0.0000000000000000000, 0.0000000000000000000, 0.0000000000000000000 ) ) ;
#48 = FACE_OUTER_BOUND ( 'NONE', #6, .T. ) ;
#49 = DIRECTION ( 'NONE',  ( -3.491481338843133355E-15, 1.224646799147353207E-16, -1.000000000000000000 ) ) ;
#50 = PERSON_AND_ORGANIZATION ( #96, #179 ) ;
#51 = CARTESIAN_POINT ( 'NONE',  ( 2.793185071074506684E-13, 1.599999999999991207, 80.00000000000000000 ) ) ;
#52 = LOCAL_TIME ( 13, 57, 11.00000000000000000, #136 ) ;
#53 = CARTESIAN_POINT ( 'NONE',  ( 4.537504433283691957E-14, 1.999999999999990452, 12.99592921435217541 ) ) ;
#54 = EDGE_CURVE ( 'NONE', #150, #150, #131, .T. ) ;
#55 = CARTESIAN_POINT ( 'NONE',  ( 0.0000000000000000000, 0.0000000000000000000, 0.0000000000000000000 ) ) ;
#56 = ADVANCED_FACE ( 'NONE', ( #133 ), #31, .F. ) ;
#57 = PERSON_AND_ORGANIZATION ( #96, #179 ) ;
#58 = AXIS2_PLACEMENT_3D ( 'NONE', #130, #180, #202 ) ;
#59 = PERSON_AND_ORGANIZATION_ROLE ( 'design_supplier' ) ;
#60 = EDGE_LOOP ( 'NONE', ( #122 ) ) ;
#61 = ADVANCED_FACE ( 'NONE', ( #48, #240 ), #105, .T. ) ;
#62 = EDGE_LOOP ( 'NONE', ( #212 ) ) ;
#63 = CONICAL_SURFACE ( 'NONE', #208, 2.175000000000033129, 0.7853981633974502774 ) ;
#64 = ORIENTED_EDGE ( 'NONE', *, *, #231, .T. ) ;
#65 = CARTESIAN_POINT ( 'NONE',  ( -4.649966697413012922E-31, 1.630988763644795191E-32, -1.331803394072767021E-16 ) ) ;
#66 = CIRCLE ( 'NONE', #139, 1.999999999999992228 ) ;
#67 = DIRECTION ( 'NONE',  ( -3.491481338843133355E-15, 1.224646799147353207E-16, -1.000000000000000000 ) ) ;
#68 = FACE_OUTER_BOUND ( 'NONE', #27, .T. ) ;
#69 = FACE_OUTER_BOUND ( 'NONE', #86, .T. ) ;
#70 = PRODUCT ( '321741', '321741', '', ( #203 ) ) ;
#71 = CARTESIAN_POINT ( 'NONE',  ( -9.299933394826025844E-31, 3.261977527289590383E-32, -2.663606788145534043E-16 ) ) ;
#72 = PERSON_AND_ORGANIZATION_ROLE ( 'creator' ) ;
#73 = CARTESIAN_POINT ( 'NONE',  ( 2.779219145719134403E-13, 1.999999999999991340, 79.60000000000000853 ) ) ;
#74 = APPROVAL ( #34, 'UNSPECIFIED' ) ;
#75 = DATE_TIME_ROLE ( 'creation_date' ) ;
#76 = APPLICATION_PROTOCOL_DEFINITION ( 'international standard', 'config_control_design', 1994, #98 ) ;
#77 = CC_DESIGN_DATE_AND_TIME_ASSIGNMENT ( #36, #75, ( #19 ) ) ;
#78 = CARTESIAN_POINT ( 'NONE',  ( 4.189777606611760026E-14, 2.575000000000033484, 12.00000000000000000 ) ) ;
#79 = ADVANCED_BREP_SHAPE_REPRESENTATION ( '321741', ( #88, #160, #200 ), #11 ) ;
#80 = COORDINATED_UNIVERSAL_TIME_OFFSET ( 1, 0, .AHEAD. ) ;
#81 = APPROVAL_PERSON_ORGANIZATION ( #101, #190, #170 ) ;
#82 = DATE_AND_TIME ( #5, #227 ) ;
#83 = APPROVAL_ROLE ( '' ) ;
#84 = ADVANCED_FACE ( 'NONE', ( #181 ), #218, .T. ) ;
#85 = EDGE_LOOP ( 'NONE', ( #214 ) ) ;
#86 = EDGE_LOOP ( 'NONE', ( #175 ) ) ;
#87 = CIRCLE ( 'NONE', #35, 2.575000000000034817 ) ;
#88 = MANIFOLD_SOLID_BREP ( 'Corps-Déplacer/Copier1[1]', #115 ) ;
#89 = DIRECTION ( 'NONE',  ( 4.275831445896958607E-31, 1.000000000000000000, 1.224646799147352961E-16 ) ) ;
#90 = FACE_OUTER_BOUND ( 'NONE', #195, .T. ) ;
#91 = AXIS2_PLACEMENT_3D ( 'NONE', #43, #29, #198 ) ;
#92 = PRODUCT_DEFINITION_FORMATION_WITH_SPECIFIED_SOURCE ( 'ANY', '', #70, .NOT_KNOWN. ) ;
#93 = PLANE ( 'NONE',  #58 ) ;
#94 = CYLINDRICAL_SURFACE ( 'NONE', #224, 2.575000000000034817 ) ;
#95 = DIRECTION ( 'NONE',  ( 3.491481338843133355E-15, -1.224646799147353207E-16, 1.000000000000000000 ) ) ;
#96 = PERSON ( 'UNSPECIFIED', 'UNSPECIFIED', 'UNSPECIFIED', ('UNSPECIFIED'), ('UNSPECIFIED'), ('UNSPECIFIED') ) ;
#97 = CC_DESIGN_APPROVAL ( #190, ( #92 ) ) ;
#98 = APPLICATION_CONTEXT ( 'configuration controlled 3d designs of mechanical parts and assemblies' ) ;
#99 = DATE_AND_TIME ( #18, #100 ) ;
#100 = LOCAL_TIME ( 13, 57, 11.00000000000000000, #207 ) ;
#101 = PERSON_AND_ORGANIZATION ( #96, #179 ) ;
#102 =( NAMED_UNIT ( * ) PLANE_ANGLE_UNIT ( ) SI_UNIT ( $, .RADIAN. ) );
#103 = APPROVAL_DATE_TIME ( #210, #155 ) ;
#104 = PERSON_AND_ORGANIZATION_ROLE ( 'creator' ) ;
#105 = CONICAL_SURFACE ( 'NONE', #8, 1.600000000000000977, 0.7853981633974512766 ) ;
#106 = CALENDAR_DATE ( 2021, 2, 12 ) ;
#107 = ORIENTED_EDGE ( 'NONE', *, *, #197, .F. ) ;
#108 = DIRECTION ( 'NONE',  ( -3.491481338843133355E-15, 1.224646799147353207E-16, -1.000000000000000000 ) ) ;
#109 = CARTESIAN_POINT ( 'NONE',  ( 4.189777606611760026E-14, 1.930940720177165892E-32, 12.00000000000000000 ) ) ;
#110 = FACE_OUTER_BOUND ( 'NONE', #85, .T. ) ;
#111 = CLOSED_SHELL ( 'NONE', ( #120, #129, #84, #177 ) ) ;
#112 = DIRECTION ( 'NONE',  ( 0.0000000000000000000, 1.000000000000000000, 0.0000000000000000000 ) ) ;
#113 = FACE_OUTER_BOUND ( 'NONE', #193, .T. ) ;
#114 = VERTEX_POINT ( 'NONE', #39 ) ;
#115 = CLOSED_SHELL ( 'NONE', ( #56, #168, #237, #61, #211 ) ) ;
#116 = APPROVAL_STATUS ( 'not_yet_approved' ) ;
#117 = APPLICATION_CONTEXT ( 'configuration controlled 3d designs of mechanical parts and assemblies' ) ;
#118 = AXIS2_PLACEMENT_3D ( 'NONE', #143, #67, #216 ) ;
#119 = ORIENTED_EDGE ( 'NONE', *, *, #46, .T. ) ;
#120 = ADVANCED_FACE ( 'NONE', ( #113, #68 ), #94, .T. ) ;
#121 = AXIS2_PLACEMENT_3D ( 'NONE', #189, #151, #205 ) ;
#122 = ORIENTED_EDGE ( 'NONE', *, *, #188, .T. ) ;
#123 = EDGE_CURVE ( 'NONE', #184, #184, #1, .T. ) ;
#124 = EDGE_LOOP ( 'NONE', ( #119 ) ) ;
#125 = FACE_BOUND ( 'NONE', #41, .T. ) ;
#126 = APPROVAL_PERSON_ORGANIZATION ( #209, #155, #83 ) ;
#127 = DIRECTION ( 'NONE',  ( 0.0000000000000000000, 1.000000000000000000, 0.0000000000000000000 ) ) ;
#128 = CARTESIAN_POINT ( 'NONE',  ( 4.189777606611760026E-14, -1.469576158976823947E-15, 12.00000000000000000 ) ) ;
#129 = ADVANCED_FACE ( 'NONE', ( #69 ), #93, .T. ) ;
#130 = CARTESIAN_POINT ( 'NONE',  ( 4.189777606611760026E-14, 1.930940720177165892E-32, 12.00000000000000000 ) ) ;
#131 = CIRCLE ( 'NONE', #137, 2.575000000000034817 ) ;
#132 = PRODUCT_DEFINITION_SHAPE ( 'NONE', 'NONE',  #19 ) ;
#133 = FACE_OUTER_BOUND ( 'NONE', #42, .T. ) ;
#134 = DIRECTION ( 'NONE',  ( 1.000000000000000000, 0.0000000000000000000, 0.0000000000000000000 ) ) ;
#135 = VERTEX_POINT ( 'NONE', #149 ) ;
#136 = COORDINATED_UNIVERSAL_TIME_OFFSET ( 1, 0, .AHEAD. ) ;
#137 = AXIS2_PLACEMENT_3D ( 'NONE', #238, #49, #127 ) ;
#138 = PERSON_AND_ORGANIZATION ( #96, #179 ) ;
#139 = AXIS2_PLACEMENT_3D ( 'NONE', #176, #9, #233 ) ;
#140 = ORIENTED_EDGE ( 'NONE', *, *, #231, .F. ) ;
#141 = PLANE ( 'NONE',  #186 ) ;
#142 = AXIS2_PLACEMENT_3D ( 'NONE', #15, #14, #235 ) ;
#143 = CARTESIAN_POINT ( 'NONE',  ( 4.189777606611760026E-14, -1.469576158976823947E-15, 12.00000000000000000 ) ) ;
#144 = CARTESIAN_POINT ( 'NONE',  ( 2.779219145719134403E-13, -9.748188521212932624E-15, 79.60000000000000853 ) ) ;
#145 = DIRECTION ( 'NONE',  ( -3.491481338843133355E-15, 1.224646799147353207E-16, -1.000000000000000000 ) ) ;
#146 = CONICAL_SURFACE ( 'NONE', #234, 2.575000000000034817, 0.5235987755983005920 ) ;
#147 = EDGE_CURVE ( 'NONE', #152, #152, #25, .T. ) ;
#148 = DIRECTION ( 'NONE',  ( -4.275831445896958607E-31, -1.000000000000000000, -1.224646799147353207E-16 ) ) ;
#149 = CARTESIAN_POINT ( 'NONE',  ( 4.189777606611760026E-14, 2.575000000000033484, 12.00000000000000000 ) ) ;
#150 = VERTEX_POINT ( 'NONE', #78 ) ;
#151 = DIRECTION ( 'NONE',  ( -3.491481338843133355E-15, 1.224646799147353207E-16, -1.000000000000000000 ) ) ;
#152 = VERTEX_POINT ( 'NONE', #73 ) ;
#153 = DIRECTION ( 'NONE',  ( 0.0000000000000000000, 0.0000000000000000000, 1.000000000000000000 ) ) ;
#154 = CIRCLE ( 'NONE', #91, 2.175000000000033129 ) ;
#155 = APPROVAL ( #3, 'UNSPECIFIED' ) ;
#156 = SHAPE_DEFINITION_REPRESENTATION ( #132, #79 ) ;
#157 = DIRECTION ( 'NONE',  ( 0.0000000000000000000, 1.000000000000000000, 0.0000000000000000000 ) ) ;
#158 = DIRECTION ( 'NONE',  ( 4.275831445896958607E-31, 1.000000000000000000, 1.224646799147353207E-16 ) ) ;
#159 = AXIS2_PLACEMENT_3D ( 'NONE', #144, #145, #157 ) ;
#160 = MANIFOLD_SOLID_BREP ( 'Corps-Déplacer/Copier1[2]', #111 ) ;
#161 = DIRECTION ( 'NONE',  ( 3.491481338843133355E-15, -1.224646799147353207E-16, 1.000000000000000000 ) ) ;
#162 = DIRECTION ( 'NONE',  ( -3.491481338843133355E-15, 1.224646799147353207E-16, -1.000000000000000000 ) ) ;
#163 = DIRECTION ( 'NONE',  ( -3.491481338843133355E-15, 1.224646799147353207E-16, -1.000000000000000000 ) ) ;
#164 = DESIGN_CONTEXT ( 'detailed design', #98, 'design' ) ;
#165 = CC_DESIGN_APPROVAL ( #74, ( #19 ) ) ;
#166 = CARTESIAN_POINT ( 'NONE',  ( 1.396592535537253342E-15, 2.575000000000034817, 0.3999999999999999667 ) ) ;
#167 = PERSON_AND_ORGANIZATION ( #96, #179 ) ;
#168 = ADVANCED_FACE ( 'NONE', ( #125, #32 ), #146, .T. ) ;
#169 = CIRCLE ( 'NONE', #118, 2.575000000000034817 ) ;
#170 = APPROVAL_ROLE ( '' ) ;
#171 = PERSON_AND_ORGANIZATION ( #96, #179 ) ;
#172 = PERSON_AND_ORGANIZATION_ROLE ( 'classification_officer' ) ;
#173 = CC_DESIGN_PERSON_AND_ORGANIZATION_ASSIGNMENT ( #57, #172, ( #225 ) ) ;
#174 = EDGE_LOOP ( 'NONE', ( #192 ) ) ;
#175 = ORIENTED_EDGE ( 'NONE', *, *, #54, .F. ) ;
#176 = CARTESIAN_POINT ( 'NONE',  ( 4.537504433283691957E-14, -1.591542311430196736E-15, 12.99592921435217541 ) ) ;
#177 = ADVANCED_FACE ( 'NONE', ( #183, #30 ), #63, .T. ) ;
#178 = CARTESIAN_POINT ( 'NONE',  ( 2.793185071074506684E-13, -9.797174393178826052E-15, 80.00000000000000000 ) ) ;
#179 = ORGANIZATION ( 'UNSPECIFIED', 'UNSPECIFIED', '' ) ;
#180 = DIRECTION ( 'NONE',  ( 3.491481338843133355E-15, -1.224646799147353207E-16, 1.000000000000000000 ) ) ;
#181 = FACE_OUTER_BOUND ( 'NONE', #124, .T. ) ;
#182 = CC_DESIGN_PERSON_AND_ORGANIZATION_ASSIGNMENT ( #187, #20, ( #70 ) ) ;
#183 = FACE_OUTER_BOUND ( 'NONE', #60, .T. ) ;
#184 = VERTEX_POINT ( 'NONE', #51 ) ;
#185 = UNCERTAINTY_MEASURE_WITH_UNIT (LENGTH_MEASURE( 1.000000000000000082E-05 ), #23, 'distance_accuracy_value', 'NONE');
#186 = AXIS2_PLACEMENT_3D ( 'NONE', #215, #45, #158 ) ;
#187 = PERSON_AND_ORGANIZATION ( #96, #179 ) ;
#188 = EDGE_CURVE ( 'NONE', #223, #223, #87, .T. ) ;
#189 = CARTESIAN_POINT ( 'NONE',  ( 0.0000000000000000000, 0.0000000000000000000, 0.0000000000000000000 ) ) ;
#190 = APPROVAL ( #116, 'UNSPECIFIED' ) ;
#191 = COORDINATED_UNIVERSAL_TIME_OFFSET ( 1, 0, .AHEAD. ) ;
#192 = ORIENTED_EDGE ( 'NONE', *, *, #123, .T. ) ;
#193 = EDGE_LOOP ( 'NONE', ( #40 ) ) ;
#194 = LOCAL_TIME ( 13, 57, 11.00000000000000000, #222 ) ;
#195 = EDGE_LOOP ( 'NONE', ( #4 ) ) ;
#196 = DIRECTION ( 'NONE',  ( -4.275831445896958607E-31, -1.000000000000000000, -1.224646799147353207E-16 ) ) ;
#197 = EDGE_CURVE ( 'NONE', #206, #206, #66, .T. ) ;
#198 = DIRECTION ( 'NONE',  ( 4.275831445896958607E-31, 1.000000000000000000, 1.224646799147353207E-16 ) ) ;
#199 = FACE_OUTER_BOUND ( 'NONE', #213, .T. ) ;
#200 = AXIS2_PLACEMENT_3D ( 'NONE', #55, #153, #134 ) ;
#201 = DIRECTION ( 'NONE',  ( 4.487603753911944870E-31, 1.000000000000000000, 1.263148162119017122E-16 ) ) ;
#202 = DIRECTION ( 'NONE',  ( -4.275831445896958607E-31, -1.000000000000000000, -1.224646799147353207E-16 ) ) ;
#203 = MECHANICAL_CONTEXT ( 'NONE', #117, 'mechanical' ) ;
#204 = CALENDAR_DATE ( 2021, 2, 12 ) ;
#205 = DIRECTION ( 'NONE',  ( 4.275831445896958607E-31, 1.000000000000000000, 1.224646799147353207E-16 ) ) ;
#206 = VERTEX_POINT ( 'NONE', #53 ) ;
#207 = COORDINATED_UNIVERSAL_TIME_OFFSET ( 1, 0, .AHEAD. ) ;
#208 = AXIS2_PLACEMENT_3D ( 'NONE', #71, #95, #148 ) ;
#209 = PERSON_AND_ORGANIZATION ( #96, #179 ) ;
#210 = DATE_AND_TIME ( #106, #16 ) ;
#211 = ADVANCED_FACE ( 'NONE', ( #90 ), #141, .F. ) ;
#212 = ORIENTED_EDGE ( 'NONE', *, *, #46, .F. ) ;
#213 = EDGE_LOOP ( 'NONE', ( #107 ) ) ;
#214 = ORIENTED_EDGE ( 'NONE', *, *, #147, .T. ) ;
#215 = CARTESIAN_POINT ( 'NONE',  ( 2.793185071074506684E-13, 1.199807826129472128E-32, 80.00000000000000000 ) ) ;
#216 = DIRECTION ( 'NONE',  ( 0.0000000000000000000, 1.000000000000000000, 0.0000000000000000000 ) ) ;
#217 = CC_DESIGN_PERSON_AND_ORGANIZATION_ASSIGNMENT ( #171, #59, ( #92 ) ) ;
#218 = PLANE ( 'NONE',  #22 ) ;
#219 = AXIS2_PLACEMENT_3D ( 'NONE', #109, #161, #196 ) ;
#220 = DIRECTION ( 'NONE',  ( 4.275831445896958607E-31, 1.000000000000000000, 1.224646799147353207E-16 ) ) ;
#221 = CARTESIAN_POINT ( 'NONE',  ( 1.396592535537252159E-15, -4.898587196589408145E-17, 0.3999999999999996336 ) ) ;
#222 = COORDINATED_UNIVERSAL_TIME_OFFSET ( 1, 0, .AHEAD. ) ;
#223 = VERTEX_POINT ( 'NONE', #166 ) ;
#224 = AXIS2_PLACEMENT_3D ( 'NONE', #47, #162, #89 ) ;
#225 = SECURITY_CLASSIFICATION ( '', '', #26 ) ;
#226 = CC_DESIGN_DATE_AND_TIME_ASSIGNMENT ( #82, #229, ( #225 ) ) ;
#227 = LOCAL_TIME ( 13, 57, 11.00000000000000000, #191 ) ;
#228 = ORIENTED_EDGE ( 'NONE', *, *, #197, .T. ) ;
#229 = DATE_TIME_ROLE ( 'classification_date' ) ;
#230 = ORIENTED_EDGE ( 'NONE', *, *, #188, .F. ) ;
#231 = EDGE_CURVE ( 'NONE', #135, #135, #169, .T. ) ;
#232 = ORIENTED_EDGE ( 'NONE', *, *, #147, .F. ) ;
#233 = DIRECTION ( 'NONE',  ( 0.0000000000000000000, 1.000000000000000000, 0.0000000000000000000 ) ) ;
#234 = AXIS2_PLACEMENT_3D ( 'NONE', #128, #13, #28 ) ;
#235 = DIRECTION ( 'NONE',  ( 0.0000000000000000000, 1.000000000000000000, 0.0000000000000000000 ) ) ;
#236 = CYLINDRICAL_SURFACE ( 'NONE', #121, 1.999999999999996669 ) ;
#237 = ADVANCED_FACE ( 'NONE', ( #199, #110 ), #236, .T. ) ;
#238 = CARTESIAN_POINT ( 'NONE',  ( 4.189777606611760026E-14, -1.469576158976823947E-15, 12.00000000000000000 ) ) ;
#239 = APPROVAL_PERSON_ORGANIZATION ( #50, #74, #21 ) ;
#240 = FACE_BOUND ( 'NONE', #174, .T. ) ;
#241 = DATE_AND_TIME ( #17, #52 ) ;
#242 = APPROVAL_DATE_TIME ( #99, #190 ) ;
#243 = APPROVAL_DATE_TIME ( #241, #74 ) ;
ENDSEC;
END-ISO-10303-21;
