ISO-10303-21;
HEADER;
FILE_DESCRIPTION (( 'STEP AP203' ),
    '1' );
FILE_NAME ('321740.step',
    '2021-12-02T12:57:10',
    ( '' ),
    ( '' ),
    'SwSTEP 2.0',
    'SolidWorks 2019',
    '' );
FILE_SCHEMA (( 'CONFIG_CONTROL_DESIGN' ));
ENDSEC;

DATA;
#1 = CARTESIAN_POINT ( 'NONE',  ( 2.779219145719134403E-13, -9.748188521212932624E-15, 79.60000000000000853 ) ) ;
#2 = DIRECTION ( 'NONE',  ( -3.491481338843133355E-15, 1.224646799147353207E-16, -1.000000000000000000 ) ) ;
#3 = FACE_OUTER_BOUND ( 'NONE', #217, .T. ) ;
#4 = COORDINATED_UNIVERSAL_TIME_OFFSET ( 1, 0, .AHEAD. ) ;
#5 = CC_DESIGN_PERSON_AND_ORGANIZATION_ASSIGNMENT ( #155, #62, ( #93 ) ) ;
#6 = APPROVAL_ROLE ( '' ) ;
#7 = CC_DESIGN_SECURITY_CLASSIFICATION ( #93, ( #107 ) ) ;
#8 = APPROVAL_STATUS ( 'not_yet_approved' ) ;
#9 = CALENDAR_DATE ( 2021, 2, 12 ) ;
#10 = APPROVAL ( #153, 'UNSPECIFIED' ) ;
#11 = ORIENTED_EDGE ( 'NONE', *, *, #108, .F. ) ;
#12 = CARTESIAN_POINT ( 'NONE',  ( 4.189777606611760026E-14, 1.927191320720511220E-32, 12.00000000000000000 ) ) ;
#13 = EDGE_CURVE ( 'NONE', #53, #53, #86, .T. ) ;
#14 = DIRECTION ( 'NONE',  ( -3.491481338843133355E-15, 1.224646799147353207E-16, -1.000000000000000000 ) ) ;
#15 = PLANE ( 'NONE',  #127 ) ;
#16 = CARTESIAN_POINT ( 'NONE',  ( -4.639277118798272316E-31, 1.627239364188140794E-32, -1.328741777074898830E-16 ) ) ;
#17 = DIRECTION ( 'NONE',  ( 4.496334500514886438E-31, 1.000000000000000000, 1.265605648815746739E-16 ) ) ;
#18 = DIRECTION ( 'NONE',  ( -3.491481338843133355E-15, 1.224646799147353207E-16, -1.000000000000000000 ) ) ;
#19 = CARTESIAN_POINT ( 'NONE',  ( 2.793185071074506684E-13, 1.599999999999991207, 80.00000000000000000 ) ) ;
#20 = AXIS2_PLACEMENT_3D ( 'NONE', #36, #32, #160 ) ;
#21 = VERTEX_POINT ( 'NONE', #232 ) ;
#22 = AXIS2_PLACEMENT_3D ( 'NONE', #96, #97, #135 ) ;
#23 = PERSON_AND_ORGANIZATION ( #30, #209 ) ;
#24 = EDGE_CURVE ( 'NONE', #84, #84, #193, .T. ) ;
#25 = PERSON_AND_ORGANIZATION_ROLE ( 'creator' ) ;
#26 = EDGE_LOOP ( 'NONE', ( #218 ) ) ;
#27 = CC_DESIGN_APPROVAL ( #61, ( #173 ) ) ;
#28 = CYLINDRICAL_SURFACE ( 'NONE', #110, 2.570000000000034923 ) ;
#29 = FACE_OUTER_BOUND ( 'NONE', #220, .T. ) ;
#30 = PERSON ( 'UNSPECIFIED', 'UNSPECIFIED', 'UNSPECIFIED', ('UNSPECIFIED'), ('UNSPECIFIED'), ('UNSPECIFIED') ) ;
#31 = FACE_OUTER_BOUND ( 'NONE', #87, .T. ) ;
#32 = DIRECTION ( 'NONE',  ( -3.491481338843133355E-15, 1.224646799147353207E-16, -1.000000000000000000 ) ) ;
#33 = DIRECTION ( 'NONE',  ( -3.491481338843133355E-15, 1.224646799147353207E-16, -1.000000000000000000 ) ) ;
#34 = CALENDAR_DATE ( 2021, 2, 12 ) ;
#35 = CARTESIAN_POINT ( 'NONE',  ( -1.710569414459005214E-46, 2.170000000000033236, 0.0000000000000000000 ) ) ;
#36 = CARTESIAN_POINT ( 'NONE',  ( 4.189777606611760026E-14, -1.469576158976823947E-15, 12.00000000000000000 ) ) ;
#37 = CC_DESIGN_PERSON_AND_ORGANIZATION_ASSIGNMENT ( #236, #237, ( #107 ) ) ;
#38 = PERSON_AND_ORGANIZATION ( #30, #209 ) ;
#39 = CIRCLE ( 'NONE', #215, 2.170000000000033236 ) ;
#40 = COORDINATED_UNIVERSAL_TIME_OFFSET ( 1, 0, .AHEAD. ) ;
#41 = EDGE_LOOP ( 'NONE', ( #189 ) ) ;
#42 = ADVANCED_FACE ( 'NONE', ( #144 ), #68, .T. ) ;
#43 = LOCAL_TIME ( 13, 57, 10.00000000000000000, #100 ) ;
#44 = APPROVAL_ROLE ( '' ) ;
#45 = UNCERTAINTY_MEASURE_WITH_UNIT (LENGTH_MEASURE( 1.000000000000000082E-05 ), #170, 'distance_accuracy_value', 'NONE');
#46 = CARTESIAN_POINT ( 'NONE',  ( 1.396592535537250581E-15, -4.898587196589402598E-17, 0.3999999999999991895 ) ) ;
#47 = DIRECTION ( 'NONE',  ( 3.491481338843133355E-15, -1.224646799147353207E-16, 1.000000000000000000 ) ) ;
#48 = DIRECTION ( 'NONE',  ( 3.491481338843133355E-15, -1.224646799147353207E-16, 1.000000000000000000 ) ) ;
#49 = CC_DESIGN_PERSON_AND_ORGANIZATION_ASSIGNMENT ( #152, #213, ( #173 ) ) ;
#50 = FACE_OUTER_BOUND ( 'NONE', #115, .T. ) ;
#51 = CARTESIAN_POINT ( 'NONE',  ( 2.793185071074506684E-13, 1.199807826129472128E-32, 80.00000000000000000 ) ) ;
#52 = ADVANCED_FACE ( 'NONE', ( #228, #180 ), #28, .T. ) ;
#53 = VERTEX_POINT ( 'NONE', #112 ) ;
#54 = DATE_TIME_ROLE ( 'creation_date' ) ;
#55 = MECHANICAL_CONTEXT ( 'NONE', #60, 'mechanical' ) ;
#56 = ADVANCED_FACE ( 'NONE', ( #109, #184 ), #224, .T. ) ;
#57 = EDGE_LOOP ( 'NONE', ( #158 ) ) ;
#58 = DIRECTION ( 'NONE',  ( 0.0000000000000000000, 1.000000000000000000, 0.0000000000000000000 ) ) ;
#59 = APPROVAL_PERSON_ORGANIZATION ( #88, #122, #44 ) ;
#60 = APPLICATION_CONTEXT ( 'configuration controlled 3d designs of mechanical parts and assemblies' ) ;
#61 = APPROVAL ( #8, 'UNSPECIFIED' ) ;
#62 = PERSON_AND_ORGANIZATION_ROLE ( 'classification_officer' ) ;
#63 = DATE_TIME_ROLE ( 'classification_date' ) ;
#64 = EDGE_LOOP ( 'NONE', ( #133 ) ) ;
#65 = EDGE_CURVE ( 'NONE', #210, #210, #219, .T. ) ;
#66 = ORIENTED_EDGE ( 'NONE', *, *, #65, .T. ) ;
#67 = AXIS2_PLACEMENT_3D ( 'NONE', #221, #14, #118 ) ;
#68 = PLANE ( 'NONE',  #178 ) ;
#69 = DESIGN_CONTEXT ( 'detailed design', #172, 'design' ) ;
#70 = PLANE ( 'NONE',  #136 ) ;
#71 = LOCAL_TIME ( 13, 57, 10.00000000000000000, #4 ) ;
#72 = FACE_OUTER_BOUND ( 'NONE', #141, .T. ) ;
#73 = DIRECTION ( 'NONE',  ( 3.491481338843133355E-15, -1.224646799147353207E-16, 1.000000000000000000 ) ) ;
#74 = CARTESIAN_POINT ( 'NONE',  ( 0.0000000000000000000, 0.0000000000000000000, 0.0000000000000000000 ) ) ;
#75 = ADVANCED_FACE ( 'NONE', ( #163, #72 ), #77, .T. ) ;
#76 = VERTEX_POINT ( 'NONE', #19 ) ;
#77 = CONICAL_SURFACE ( 'NONE', #187, 2.570000000000034923, 0.5235987755983001479 ) ;
#78 = MANIFOLD_SOLID_BREP ( 'Corps-Déplacer/Copier1[2]', #120 ) ;
#79 = PRODUCT ( '321740', '321740', '', ( #55 ) ) ;
#80 =( NAMED_UNIT ( * ) SI_UNIT ( $, .STERADIAN. ) SOLID_ANGLE_UNIT ( ) );
#81 = ORIENTED_EDGE ( 'NONE', *, *, #24, .T. ) ;
#82 = DATE_AND_TIME ( #34, #71 ) ;
#83 = LOCAL_TIME ( 13, 57, 10.00000000000000000, #40 ) ;
#84 = VERTEX_POINT ( 'NONE', #212 ) ;
#85 = EDGE_CURVE ( 'NONE', #169, #169, #39, .T. ) ;
#86 = CIRCLE ( 'NONE', #20, 2.570000000000034923 ) ;
#87 = EDGE_LOOP ( 'NONE', ( #142 ) ) ;
#88 = PERSON_AND_ORGANIZATION ( #30, #209 ) ;
#89 = AXIS2_PLACEMENT_3D ( 'NONE', #230, #18, #58 ) ;
#90 = CYLINDRICAL_SURFACE ( 'NONE', #134, 1.999999999999996669 ) ;
#91 = CARTESIAN_POINT ( 'NONE',  ( 4.189777606611760026E-14, -1.469576158976823947E-15, 12.00000000000000000 ) ) ;
#92 = DIRECTION ( 'NONE',  ( -4.275831445896958607E-31, -1.000000000000000000, -1.224646799147353207E-16 ) ) ;
#93 = SECURITY_CLASSIFICATION ( '', '', #116 ) ;
#94 = FACE_OUTER_BOUND ( 'NONE', #177, .T. ) ;
#95 = CARTESIAN_POINT ( 'NONE',  ( 0.0000000000000000000, 0.0000000000000000000, 0.0000000000000000000 ) ) ;
#96 = CARTESIAN_POINT ( 'NONE',  ( 0.0000000000000000000, 0.0000000000000000000, 0.0000000000000000000 ) ) ;
#97 = DIRECTION ( 'NONE',  ( 0.0000000000000000000, 0.0000000000000000000, 1.000000000000000000 ) ) ;
#98 =( NAMED_UNIT ( * ) PLANE_ANGLE_UNIT ( ) SI_UNIT ( $, .RADIAN. ) );
#99 = ADVANCED_FACE ( 'NONE', ( #31 ), #70, .T. ) ;
#100 = COORDINATED_UNIVERSAL_TIME_OFFSET ( 1, 0, .AHEAD. ) ;
#101 = APPLICATION_PROTOCOL_DEFINITION ( 'international standard', 'config_control_design', 1994, #172 ) ;
#102 =( GEOMETRIC_REPRESENTATION_CONTEXT ( 3 ) GLOBAL_UNCERTAINTY_ASSIGNED_CONTEXT ( ( #45 ) ) GLOBAL_UNIT_ASSIGNED_CONTEXT ( ( #170, #98, #80 ) ) REPRESENTATION_CONTEXT ( 'NONE', 'WORKASPACE' ) );
#103 = DIRECTION ( 'NONE',  ( 4.275831445896958607E-31, 1.000000000000000000, 1.224646799147353207E-16 ) ) ;
#104 = CC_DESIGN_PERSON_AND_ORGANIZATION_ASSIGNMENT ( #168, #114, ( #79 ) ) ;
#105 = DIRECTION ( 'NONE',  ( 4.275831445896958607E-31, 1.000000000000000000, 1.224646799147353207E-16 ) ) ;
#106 = DIRECTION ( 'NONE',  ( -3.491481338843133355E-15, 1.224646799147353207E-16, -1.000000000000000000 ) ) ;
#107 = PRODUCT_DEFINITION_FORMATION_WITH_SPECIFIED_SOURCE ( 'ANY', '', #79, .NOT_KNOWN. ) ;
#108 = EDGE_CURVE ( 'NONE', #113, #113, #241, .T. ) ;
#109 = FACE_OUTER_BOUND ( 'NONE', #41, .T. ) ;
#110 = AXIS2_PLACEMENT_3D ( 'NONE', #95, #2, #103 ) ;
#111 = DIRECTION ( 'NONE',  ( -3.491481338843133355E-15, 1.224646799147353207E-16, -1.000000000000000000 ) ) ;
#112 = CARTESIAN_POINT ( 'NONE',  ( 4.189777606611760026E-14, 2.570000000000033591, 12.00000000000000000 ) ) ;
#113 = VERTEX_POINT ( 'NONE', #129 ) ;
#114 = PERSON_AND_ORGANIZATION_ROLE ( 'design_owner' ) ;
#115 = EDGE_LOOP ( 'NONE', ( #192 ) ) ;
#116 = SECURITY_CLASSIFICATION_LEVEL ( 'unclassified' ) ;
#117 = ORIENTED_EDGE ( 'NONE', *, *, #191, .T. ) ;
#118 = DIRECTION ( 'NONE',  ( 0.0000000000000000000, 1.000000000000000000, 0.0000000000000000000 ) ) ;
#119 = CARTESIAN_POINT ( 'NONE',  ( 4.189777606611760026E-14, -1.469576158976823947E-15, 12.00000000000000000 ) ) ;
#120 = CLOSED_SHELL ( 'NONE', ( #52, #99, #42, #227 ) ) ;
#121 = DIRECTION ( 'NONE',  ( -4.275831445896958607E-31, -1.000000000000000000, -1.224646799147353207E-16 ) ) ;
#122 = APPROVAL ( #140, 'UNSPECIFIED' ) ;
#123 = CARTESIAN_POINT ( 'NONE',  ( 4.534480721747415083E-14, -1.590481736191471889E-15, 12.98726896031433142 ) ) ;
#124 = LOCAL_TIME ( 13, 57, 10.00000000000000000, #150 ) ;
#125 = DIRECTION ( 'NONE',  ( -3.491481338843133355E-15, 1.224646799147353207E-16, -1.000000000000000000 ) ) ;
#126 = CLOSED_SHELL ( 'NONE', ( #194, #75, #151, #56, #181 ) ) ;
#127 = AXIS2_PLACEMENT_3D ( 'NONE', #51, #106, #105 ) ;
#128 = CIRCLE ( 'NONE', #161, 2.000000000000000888 ) ;
#129 = CARTESIAN_POINT ( 'NONE',  ( 4.189777606611760026E-14, 2.570000000000033591, 12.00000000000000000 ) ) ;
#130 = PRODUCT_DEFINITION_SHAPE ( 'NONE', 'NONE',  #173 ) ;
#131 = DATE_AND_TIME ( #229, #124 ) ;
#132 = AXIS2_PLACEMENT_3D ( 'NONE', #164, #73, #148 ) ;
#133 = ORIENTED_EDGE ( 'NONE', *, *, #85, .T. ) ;
#134 = AXIS2_PLACEMENT_3D ( 'NONE', #74, #111, #149 ) ;
#135 = DIRECTION ( 'NONE',  ( 1.000000000000000000, 0.0000000000000000000, 0.0000000000000000000 ) ) ;
#136 = AXIS2_PLACEMENT_3D ( 'NONE', #223, #47, #92 ) ;
#137 = AXIS2_PLACEMENT_3D ( 'NONE', #12, #48, #121 ) ;
#138 = COORDINATED_UNIVERSAL_TIME_OFFSET ( 1, 0, .AHEAD. ) ;
#139 = PRODUCT_RELATED_PRODUCT_CATEGORY ( 'detail', '', ( #79 ) ) ;
#140 = APPROVAL_STATUS ( 'not_yet_approved' ) ;
#141 = EDGE_LOOP ( 'NONE', ( #11 ) ) ;
#142 = ORIENTED_EDGE ( 'NONE', *, *, #13, .F. ) ;
#143 = DIRECTION ( 'NONE',  ( 4.275831445896958607E-31, 1.000000000000000000, 1.224646799147353207E-16 ) ) ;
#144 = FACE_OUTER_BOUND ( 'NONE', #64, .T. ) ;
#145 = CONICAL_SURFACE ( 'NONE', #132, 2.170000000000033236, 0.7853981633974508325 ) ;
#146 = APPROVAL_PERSON_ORGANIZATION ( #38, #10, #185 ) ;
#147 = DIRECTION ( 'NONE',  ( 0.0000000000000000000, 1.000000000000000000, 0.0000000000000000000 ) ) ;
#148 = DIRECTION ( 'NONE',  ( -4.275831445896957731E-31, -1.000000000000000000, -1.224646799147353454E-16 ) ) ;
#149 = DIRECTION ( 'NONE',  ( 4.275831445896958607E-31, 1.000000000000000000, 1.224646799147353207E-16 ) ) ;
#150 = COORDINATED_UNIVERSAL_TIME_OFFSET ( 1, 0, .AHEAD. ) ;
#151 = ADVANCED_FACE ( 'NONE', ( #50, #3 ), #90, .T. ) ;
#152 = PERSON_AND_ORGANIZATION ( #30, #209 ) ;
#153 = APPROVAL_STATUS ( 'not_yet_approved' ) ;
#154 = CALENDAR_DATE ( 2021, 2, 12 ) ;
#155 = PERSON_AND_ORGANIZATION ( #30, #209 ) ;
#156 = LOCAL_TIME ( 13, 57, 10.00000000000000000, #138 ) ;
#157 = MANIFOLD_SOLID_BREP ( 'Corps-Déplacer/Copier1[1]', #126 ) ;
#158 = ORIENTED_EDGE ( 'NONE', *, *, #234, .T. ) ;
#159 = ORIENTED_EDGE ( 'NONE', *, *, #108, .T. ) ;
#160 = DIRECTION ( 'NONE',  ( 0.0000000000000000000, 1.000000000000000000, 0.0000000000000000000 ) ) ;
#161 = AXIS2_PLACEMENT_3D ( 'NONE', #1, #207, #147 ) ;
#162 = CARTESIAN_POINT ( 'NONE',  ( -9.278554237596544633E-31, 3.254478728376281587E-32, -2.657483554149797660E-16 ) ) ;
#163 = FACE_BOUND ( 'NONE', #196, .T. ) ;
#164 = CARTESIAN_POINT ( 'NONE',  ( -9.278554237596544633E-31, 3.254478728376281587E-32, -2.657483554149797660E-16 ) ) ;
#165 = DIRECTION ( 'NONE',  ( -3.491481338843133355E-15, 1.224646799147353207E-16, -1.000000000000000000 ) ) ;
#166 = APPROVAL_DATE_TIME ( #233, #61 ) ;
#167 = CC_DESIGN_APPROVAL ( #10, ( #107 ) ) ;
#168 = PERSON_AND_ORGANIZATION ( #30, #209 ) ;
#169 = VERTEX_POINT ( 'NONE', #35 ) ;
#170 =( LENGTH_UNIT ( ) NAMED_UNIT ( * ) SI_UNIT ( .MILLI., .METRE. ) );
#171 = PERSON_AND_ORGANIZATION ( #30, #209 ) ;
#172 = APPLICATION_CONTEXT ( 'configuration controlled 3d designs of mechanical parts and assemblies' ) ;
#173 = PRODUCT_DEFINITION ( 'UNKNOWN', '', #107, #69 ) ;
#174 = AXIS2_PLACEMENT_3D ( 'NONE', #46, #125, #17 ) ;
#175 = ORIENTED_EDGE ( 'NONE', *, *, #65, .F. ) ;
#176 = EDGE_LOOP ( 'NONE', ( #175 ) ) ;
#177 = EDGE_LOOP ( 'NONE', ( #159 ) ) ;
#178 = AXIS2_PLACEMENT_3D ( 'NONE', #16, #179, #143 ) ;
#179 = DIRECTION ( 'NONE',  ( -3.491481338843133355E-15, 1.224646799147353207E-16, -1.000000000000000000 ) ) ;
#180 = FACE_OUTER_BOUND ( 'NONE', #176, .T. ) ;
#181 = ADVANCED_FACE ( 'NONE', ( #29 ), #15, .F. ) ;
#182 = DIRECTION ( 'NONE',  ( 4.275831445896958607E-31, 1.000000000000000000, 1.224646799147353454E-16 ) ) ;
#183 = CC_DESIGN_APPROVAL ( #122, ( #93 ) ) ;
#184 = FACE_BOUND ( 'NONE', #57, .T. ) ;
#185 = APPROVAL_ROLE ( '' ) ;
#186 = APPLICATION_PROTOCOL_DEFINITION ( 'international standard', 'config_control_design', 1994, #60 ) ;
#187 = AXIS2_PLACEMENT_3D ( 'NONE', #91, #165, #226 ) ;
#188 = CARTESIAN_POINT ( 'NONE',  ( 1.396592535537251764E-15, 2.570000000000034923, 0.3999999999999995226 ) ) ;
#189 = ORIENTED_EDGE ( 'NONE', *, *, #191, .F. ) ;
#190 = CALENDAR_DATE ( 2021, 2, 12 ) ;
#191 = EDGE_CURVE ( 'NONE', #21, #21, #128, .T. ) ;
#192 = ORIENTED_EDGE ( 'NONE', *, *, #24, .F. ) ;
#193 = CIRCLE ( 'NONE', #206, 1.999999999999992228 ) ;
#194 = ADVANCED_FACE ( 'NONE', ( #94 ), #225, .F. ) ;
#195 = DATE_AND_TIME ( #9, #83 ) ;
#196 = EDGE_LOOP ( 'NONE', ( #81 ) ) ;
#197 = ORIENTED_EDGE ( 'NONE', *, *, #234, .F. ) ;
#198 = DIRECTION ( 'NONE',  ( -3.491481338843133355E-15, 1.224646799147353207E-16, -1.000000000000000000 ) ) ;
#199 = ADVANCED_BREP_SHAPE_REPRESENTATION ( '321740', ( #157, #78, #22 ), #102 ) ;
#200 = AXIS2_PLACEMENT_3D ( 'NONE', #119, #198, #201 ) ;
#201 = DIRECTION ( 'NONE',  ( 0.0000000000000000000, 1.000000000000000000, 0.0000000000000000000 ) ) ;
#202 = CC_DESIGN_DATE_AND_TIME_ASSIGNMENT ( #82, #54, ( #173 ) ) ;
#203 = FACE_OUTER_BOUND ( 'NONE', #240, .T. ) ;
#204 = DIRECTION ( 'NONE',  ( 0.0000000000000000000, 1.000000000000000000, 0.0000000000000000000 ) ) ;
#205 = APPROVAL_PERSON_ORGANIZATION ( #171, #61, #6 ) ;
#206 = AXIS2_PLACEMENT_3D ( 'NONE', #123, #33, #204 ) ;
#207 = DIRECTION ( 'NONE',  ( -3.491481338843133355E-15, 1.224646799147353207E-16, -1.000000000000000000 ) ) ;
#208 = APPROVAL_DATE_TIME ( #131, #10 ) ;
#209 = ORGANIZATION ( 'UNSPECIFIED', 'UNSPECIFIED', '' ) ;
#210 = VERTEX_POINT ( 'NONE', #188 ) ;
#211 = CC_DESIGN_DATE_AND_TIME_ASSIGNMENT ( #216, #63, ( #93 ) ) ;
#212 = CARTESIAN_POINT ( 'NONE',  ( 4.534480721747415083E-14, 1.999999999999990452, 12.98726896031433142 ) ) ;
#213 = PERSON_AND_ORGANIZATION_ROLE ( 'creator' ) ;
#214 = CIRCLE ( 'NONE', #89, 1.600000000000000977 ) ;
#215 = AXIS2_PLACEMENT_3D ( 'NONE', #162, #243, #182 ) ;
#216 = DATE_AND_TIME ( #190, #156 ) ;
#217 = EDGE_LOOP ( 'NONE', ( #117 ) ) ;
#218 = ORIENTED_EDGE ( 'NONE', *, *, #13, .T. ) ;
#219 = CIRCLE ( 'NONE', #174, 2.570000000000034923 ) ;
#220 = EDGE_LOOP ( 'NONE', ( #197 ) ) ;
#221 = CARTESIAN_POINT ( 'NONE',  ( 2.793185071074506684E-13, -9.797174393178826052E-15, 80.00000000000000000 ) ) ;
#222 = CC_DESIGN_PERSON_AND_ORGANIZATION_ASSIGNMENT ( #23, #25, ( #107 ) ) ;
#223 = CARTESIAN_POINT ( 'NONE',  ( 4.189777606611760026E-14, 1.927191320720511220E-32, 12.00000000000000000 ) ) ;
#224 = CONICAL_SURFACE ( 'NONE', #67, 1.600000000000000977, 0.7853981633974512766 ) ;
#225 = PLANE ( 'NONE',  #137 ) ;
#226 = DIRECTION ( 'NONE',  ( 0.0000000000000000000, 1.000000000000000000, 0.0000000000000000000 ) ) ;
#227 = ADVANCED_FACE ( 'NONE', ( #203, #242 ), #145, .T. ) ;
#228 = FACE_OUTER_BOUND ( 'NONE', #26, .T. ) ;
#229 = CALENDAR_DATE ( 2021, 2, 12 ) ;
#230 = CARTESIAN_POINT ( 'NONE',  ( 2.793185071074506684E-13, -9.797174393178826052E-15, 80.00000000000000000 ) ) ;
#231 = ORIENTED_EDGE ( 'NONE', *, *, #85, .F. ) ;
#232 = CARTESIAN_POINT ( 'NONE',  ( 2.779219145719134403E-13, 1.999999999999991340, 79.60000000000000853 ) ) ;
#233 = DATE_AND_TIME ( #154, #43 ) ;
#234 = EDGE_CURVE ( 'NONE', #76, #76, #214, .T. ) ;
#235 = APPROVAL_DATE_TIME ( #195, #122 ) ;
#236 = PERSON_AND_ORGANIZATION ( #30, #209 ) ;
#237 = PERSON_AND_ORGANIZATION_ROLE ( 'design_supplier' ) ;
#238 = EDGE_LOOP ( 'NONE', ( #231 ) ) ;
#239 = SHAPE_DEFINITION_REPRESENTATION ( #130, #199 ) ;
#240 = EDGE_LOOP ( 'NONE', ( #66 ) ) ;
#241 = CIRCLE ( 'NONE', #200, 2.570000000000034923 ) ;
#242 = FACE_BOUND ( 'NONE', #238, .T. ) ;
#243 = DIRECTION ( 'NONE',  ( -3.491481338843133355E-15, 1.224646799147353207E-16, -1.000000000000000000 ) ) ;
ENDSEC;
END-ISO-10303-21;
