ISO-10303-21;
HEADER;
FILE_DESCRIPTION (( 'STEP AP203' ),
    '1' );
FILE_NAME ('321739.step',
    '2021-12-02T12:57:09',
    ( '' ),
    ( '' ),
    'SwSTEP 2.0',
    'SolidWorks 2019',
    '' );
FILE_SCHEMA (( 'CONFIG_CONTROL_DESIGN' ));
ENDSEC;

DATA;
#1 = COORDINATED_UNIVERSAL_TIME_OFFSET ( 1, 0, .AHEAD. ) ;
#2 = AXIS2_PLACEMENT_3D ( 'NONE', #28, #102, #234 ) ;
#3 = APPROVAL_PERSON_ORGANIZATION ( #178, #94, #161 ) ;
#4 = FACE_OUTER_BOUND ( 'NONE', #22, .T. ) ;
#5 = APPLICATION_CONTEXT ( 'configuration controlled 3d designs of mechanical parts and assemblies' ) ;
#6 = CALENDAR_DATE ( 2021, 2, 12 ) ;
#7 = PLANE ( 'NONE',  #9 ) ;
#8 = DIRECTION ( 'NONE',  ( -3.491481338843133355E-15, 1.224646799147353207E-16, -1.000000000000000000 ) ) ;
#9 = AXIS2_PLACEMENT_3D ( 'NONE', #88, #87, #132 ) ;
#10 = CARTESIAN_POINT ( 'NONE',  ( 4.189777606611760026E-14, -1.469576158976823947E-15, 12.00000000000000000 ) ) ;
#11 = EDGE_CURVE ( 'NONE', #89, #89, #195, .T. ) ;
#12 = FACE_OUTER_BOUND ( 'NONE', #97, .T. ) ;
#13 = APPROVAL_STATUS ( 'not_yet_approved' ) ;
#14 = ORGANIZATION ( 'UNSPECIFIED', 'UNSPECIFIED', '' ) ;
#15 = ADVANCED_FACE ( 'NONE', ( #173, #196 ), #27, .T. ) ;
#16 = CARTESIAN_POINT ( 'NONE',  ( 4.189777606611760026E-14, 2.565000000000033697, 12.00000000000000000 ) ) ;
#17 =( NAMED_UNIT ( * ) PLANE_ANGLE_UNIT ( ) SI_UNIT ( $, .RADIAN. ) );
#18 = ORIENTED_EDGE ( 'NONE', *, *, #225, .F. ) ;
#19 = CC_DESIGN_PERSON_AND_ORGANIZATION_ASSIGNMENT ( #95, #56, ( #90 ) ) ;
#20 = ORIENTED_EDGE ( 'NONE', *, *, #202, .T. ) ;
#21 = APPROVAL_ROLE ( '' ) ;
#22 = EDGE_LOOP ( 'NONE', ( #183 ) ) ;
#23 = DESIGN_CONTEXT ( 'detailed design', #5, 'design' ) ;
#24 = PLANE ( 'NONE',  #92 ) ;
#25 = LOCAL_TIME ( 13, 57, 9.000000000000000000, #1 ) ;
#26 = DIRECTION ( 'NONE',  ( 3.491481338843133355E-15, -1.224646799147353207E-16, 1.000000000000000000 ) ) ;
#27 = CYLINDRICAL_SURFACE ( 'NONE', #184, 1.999999999999996669 ) ;
#28 = CARTESIAN_POINT ( 'NONE',  ( 0.0000000000000000000, 0.0000000000000000000, 0.0000000000000000000 ) ) ;
#29 = CIRCLE ( 'NONE', #124, 2.565000000000035030 ) ;
#30 = DIRECTION ( 'NONE',  ( -4.275831445896958607E-31, -1.000000000000000000, -1.224646799147353207E-16 ) ) ;
#31 = DIRECTION ( 'NONE',  ( -3.491481338843133355E-15, 1.224646799147353207E-16, -1.000000000000000000 ) ) ;
#32 = CLOSED_SHELL ( 'NONE', ( #118, #85, #15, #75, #69 ) ) ;
#33 = DATE_AND_TIME ( #125, #110 ) ;
#34 = CC_DESIGN_DATE_AND_TIME_ASSIGNMENT ( #33, #181, ( #90 ) ) ;
#35 = VERTEX_POINT ( 'NONE', #58 ) ;
#36 =( GEOMETRIC_REPRESENTATION_CONTEXT ( 3 ) GLOBAL_UNCERTAINTY_ASSIGNED_CONTEXT ( ( #193 ) ) GLOBAL_UNIT_ASSIGNED_CONTEXT ( ( #241, #17, #126 ) ) REPRESENTATION_CONTEXT ( 'NONE', 'WORKASPACE' ) );
#37 = PERSON_AND_ORGANIZATION_ROLE ( 'design_owner' ) ;
#38 = ORIENTED_EDGE ( 'NONE', *, *, #216, .T. ) ;
#39 = CARTESIAN_POINT ( 'NONE',  ( 4.189777606611760026E-14, 2.565000000000033697, 12.00000000000000000 ) ) ;
#40 = EDGE_LOOP ( 'NONE', ( #128 ) ) ;
#41 = AXIS2_PLACEMENT_3D ( 'NONE', #220, #150, #189 ) ;
#42 = EDGE_LOOP ( 'NONE', ( #81 ) ) ;
#43 = ADVANCED_BREP_SHAPE_REPRESENTATION ( '321739', ( #83, #152, #76 ), #36 ) ;
#44 = ORIENTED_EDGE ( 'NONE', *, *, #202, .F. ) ;
#45 = DIRECTION ( 'NONE',  ( -3.491481338843133355E-15, 1.224646799147353207E-16, -1.000000000000000000 ) ) ;
#46 = COORDINATED_UNIVERSAL_TIME_OFFSET ( 1, 0, .AHEAD. ) ;
#47 = DIRECTION ( 'NONE',  ( 0.0000000000000000000, 1.000000000000000000, 0.0000000000000000000 ) ) ;
#48 = CONICAL_SURFACE ( 'NONE', #115, 2.565000000000035030, 0.5235987755982999259 ) ;
#49 = DATE_TIME_ROLE ( 'classification_date' ) ;
#50 = CARTESIAN_POINT ( 'NONE',  ( 0.0000000000000000000, 0.0000000000000000000, 0.0000000000000000000 ) ) ;
#51 = CARTESIAN_POINT ( 'NONE',  ( 2.793185071074506684E-13, 1.199807826129472128E-32, 80.00000000000000000 ) ) ;
#52 = DIRECTION ( 'NONE',  ( -3.491481338843133355E-15, 1.224646799147353207E-16, -1.000000000000000000 ) ) ;
#53 = APPROVAL_DATE_TIME ( #197, #142 ) ;
#54 = ADVANCED_FACE ( 'NONE', ( #105, #4 ), #169, .T. ) ;
#55 = CIRCLE ( 'NONE', #232, 2.165000000000033786 ) ;
#56 = PERSON_AND_ORGANIZATION_ROLE ( 'creator' ) ;
#57 = CC_DESIGN_PERSON_AND_ORGANIZATION_ASSIGNMENT ( #209, #147, ( #211 ) ) ;
#58 = CARTESIAN_POINT ( 'NONE',  ( 0.0000000000000000000, 2.165000000000033786, 0.0000000000000000000 ) ) ;
#59 = CARTESIAN_POINT ( 'NONE',  ( 0.0000000000000000000, 0.0000000000000000000, 0.0000000000000000000 ) ) ;
#60 = SECURITY_CLASSIFICATION ( '', '', #185 ) ;
#61 = APPROVAL_STATUS ( 'not_yet_approved' ) ;
#62 = ORIENTED_EDGE ( 'NONE', *, *, #11, .T. ) ;
#63 = DATE_AND_TIME ( #6, #109 ) ;
#64 = CIRCLE ( 'NONE', #104, 2.565000000000035030 ) ;
#65 = DIRECTION ( 'NONE',  ( 0.0000000000000000000, 1.000000000000000000, 0.0000000000000000000 ) ) ;
#66 = PERSON_AND_ORGANIZATION ( #231, #14 ) ;
#67 = PLANE ( 'NONE',  #218 ) ;
#68 = DIRECTION ( 'NONE',  ( 0.0000000000000000000, 1.000000000000000000, 0.0000000000000000000 ) ) ;
#69 = ADVANCED_FACE ( 'NONE', ( #123 ), #67, .F. ) ;
#70 = CARTESIAN_POINT ( 'NONE',  ( 2.779219145719134403E-13, -9.748188521212932624E-15, 79.60000000000000853 ) ) ;
#71 = CARTESIAN_POINT ( 'NONE',  ( -4.628587540183529959E-31, 1.623489964731486122E-32, -1.325680160077030392E-16 ) ) ;
#72 = EDGE_CURVE ( 'NONE', #93, #93, #64, .T. ) ;
#73 = MECHANICAL_CONTEXT ( 'NONE', #171, 'mechanical' ) ;
#74 = AXIS2_PLACEMENT_3D ( 'NONE', #168, #45, #192 ) ;
#75 = ADVANCED_FACE ( 'NONE', ( #170, #233 ), #144, .T. ) ;
#76 = AXIS2_PLACEMENT_3D ( 'NONE', #59, #77, #91 ) ;
#77 = DIRECTION ( 'NONE',  ( 0.0000000000000000000, 0.0000000000000000000, 1.000000000000000000 ) ) ;
#78 = VERTEX_POINT ( 'NONE', #222 ) ;
#79 = CC_DESIGN_PERSON_AND_ORGANIZATION_ASSIGNMENT ( #151, #186, ( #211 ) ) ;
#80 = APPLICATION_PROTOCOL_DEFINITION ( 'international standard', 'config_control_design', 1994, #171 ) ;
#81 = ORIENTED_EDGE ( 'NONE', *, *, #236, .F. ) ;
#82 = SHAPE_DEFINITION_REPRESENTATION ( #138, #43 ) ;
#83 = MANIFOLD_SOLID_BREP ( 'Corps-Déplacer/Copier1[1]', #32 ) ;
#84 = DIRECTION ( 'NONE',  ( -3.491481338843133355E-15, 1.224646799147353207E-16, -1.000000000000000000 ) ) ;
#85 = ADVANCED_FACE ( 'NONE', ( #133, #210 ), #48, .T. ) ;
#86 = DIRECTION ( 'NONE',  ( -4.275831445896958607E-31, -1.000000000000000000, -1.224646799147352961E-16 ) ) ;
#87 = DIRECTION ( 'NONE',  ( 3.491481338843133355E-15, -1.224646799147353207E-16, 1.000000000000000000 ) ) ;
#88 = CARTESIAN_POINT ( 'NONE',  ( 4.189777606611760026E-14, 1.923441921263857096E-32, 12.00000000000000000 ) ) ;
#89 = VERTEX_POINT ( 'NONE', #176 ) ;
#90 = PRODUCT_DEFINITION ( 'UNKNOWN', '', #211, #23 ) ;
#91 = DIRECTION ( 'NONE',  ( 1.000000000000000000, 0.0000000000000000000, 0.0000000000000000000 ) ) ;
#92 = AXIS2_PLACEMENT_3D ( 'NONE', #71, #230, #136 ) ;
#93 = VERTEX_POINT ( 'NONE', #39 ) ;
#94 = APPROVAL ( #13, 'UNSPECIFIED' ) ;
#95 = PERSON_AND_ORGANIZATION ( #231, #14 ) ;
#96 = ORIENTED_EDGE ( 'NONE', *, *, #236, .T. ) ;
#97 = EDGE_LOOP ( 'NONE', ( #96 ) ) ;
#98 = ORIENTED_EDGE ( 'NONE', *, *, #116, .T. ) ;
#99 = EDGE_LOOP ( 'NONE', ( #182 ) ) ;
#100 = CARTESIAN_POINT ( 'NONE',  ( 4.189777606611760026E-14, -1.469576158976823947E-15, 12.00000000000000000 ) ) ;
#101 = CARTESIAN_POINT ( 'NONE',  ( 4.189777606611760026E-14, -1.469576158976823947E-15, 12.00000000000000000 ) ) ;
#102 = DIRECTION ( 'NONE',  ( -3.491481338843133355E-15, 1.224646799147353207E-16, -1.000000000000000000 ) ) ;
#103 = DIRECTION ( 'NONE',  ( -3.491481338843133355E-15, 1.224646799147353207E-16, -1.000000000000000000 ) ) ;
#104 = AXIS2_PLACEMENT_3D ( 'NONE', #101, #84, #68 ) ;
#105 = FACE_OUTER_BOUND ( 'NONE', #127, .T. ) ;
#106 = APPROVAL_PERSON_ORGANIZATION ( #66, #207, #21 ) ;
#107 = CARTESIAN_POINT ( 'NONE',  ( 1.396592535537253342E-15, 2.565000000000035030, 0.3999999999999999667 ) ) ;
#108 = APPROVAL_ROLE ( '' ) ;
#109 = LOCAL_TIME ( 13, 57, 9.000000000000000000, #46 ) ;
#110 = LOCAL_TIME ( 13, 57, 9.000000000000000000, #200 ) ;
#111 = PERSON_AND_ORGANIZATION ( #231, #14 ) ;
#112 = COORDINATED_UNIVERSAL_TIME_OFFSET ( 1, 0, .AHEAD. ) ;
#113 = EDGE_LOOP ( 'NONE', ( #38 ) ) ;
#114 = PRODUCT ( '321739', '321739', '', ( #73 ) ) ;
#115 = AXIS2_PLACEMENT_3D ( 'NONE', #10, #8, #65 ) ;
#116 = EDGE_CURVE ( 'NONE', #78, #78, #149, .T. ) ;
#117 = DIRECTION ( 'NONE',  ( 3.491481338843133355E-15, -1.224646799147353207E-16, 1.000000000000000000 ) ) ;
#118 = ADVANCED_FACE ( 'NONE', ( #135 ), #213, .F. ) ;
#119 = DIRECTION ( 'NONE',  ( 0.0000000000000000000, 1.000000000000000000, 0.0000000000000000000 ) ) ;
#120 = DIRECTION ( 'NONE',  ( 4.505099285116280044E-31, 1.000000000000000000, 1.268072716357297920E-16 ) ) ;
#121 = FACE_OUTER_BOUND ( 'NONE', #113, .T. ) ;
#122 = PRODUCT_RELATED_PRODUCT_CATEGORY ( 'detail', '', ( #114 ) ) ;
#123 = FACE_OUTER_BOUND ( 'NONE', #40, .T. ) ;
#124 = AXIS2_PLACEMENT_3D ( 'NONE', #134, #212, #120 ) ;
#125 = CALENDAR_DATE ( 2021, 2, 12 ) ;
#126 =( NAMED_UNIT ( * ) SI_UNIT ( $, .STERADIAN. ) SOLID_ANGLE_UNIT ( ) );
#127 = EDGE_LOOP ( 'NONE', ( #20 ) ) ;
#128 = ORIENTED_EDGE ( 'NONE', *, *, #11, .F. ) ;
#129 = AXIS2_PLACEMENT_3D ( 'NONE', #100, #227, #208 ) ;
#130 = EDGE_LOOP ( 'NONE', ( #223 ) ) ;
#131 = CC_DESIGN_PERSON_AND_ORGANIZATION_ASSIGNMENT ( #165, #154, ( #60 ) ) ;
#132 = DIRECTION ( 'NONE',  ( -4.275831445896958607E-31, -1.000000000000000000, -1.224646799147353207E-16 ) ) ;
#133 = FACE_BOUND ( 'NONE', #99, .T. ) ;
#134 = CARTESIAN_POINT ( 'NONE',  ( 1.396592535537252159E-15, -4.898587196589408145E-17, 0.3999999999999996336 ) ) ;
#135 = FACE_OUTER_BOUND ( 'NONE', #146, .T. ) ;
#136 = DIRECTION ( 'NONE',  ( 4.275831445896958607E-31, 1.000000000000000000, 1.224646799147353207E-16 ) ) ;
#137 = PERSON_AND_ORGANIZATION ( #231, #14 ) ;
#138 = PRODUCT_DEFINITION_SHAPE ( 'NONE', 'NONE',  #90 ) ;
#139 = CIRCLE ( 'NONE', #129, 2.565000000000035030 ) ;
#140 = VERTEX_POINT ( 'NONE', #107 ) ;
#141 = DATE_AND_TIME ( #162, #156 ) ;
#142 = APPROVAL ( #61, 'UNSPECIFIED' ) ;
#143 = VERTEX_POINT ( 'NONE', #237 ) ;
#144 = CONICAL_SURFACE ( 'NONE', #167, 1.600000000000000977, 0.7853981633974512766 ) ;
#145 = DIRECTION ( 'NONE',  ( 4.275831445896958607E-31, 1.000000000000000000, 1.224646799147352961E-16 ) ) ;
#146 = EDGE_LOOP ( 'NONE', ( #148 ) ) ;
#147 = PERSON_AND_ORGANIZATION_ROLE ( 'creator' ) ;
#148 = ORIENTED_EDGE ( 'NONE', *, *, #72, .T. ) ;
#149 = CIRCLE ( 'NONE', #160, 2.000000000000000888 ) ;
#150 = DIRECTION ( 'NONE',  ( -3.491481338843133355E-15, 1.224646799147353207E-16, -1.000000000000000000 ) ) ;
#151 = PERSON_AND_ORGANIZATION ( #231, #14 ) ;
#152 = MANIFOLD_SOLID_BREP ( 'Corps-Déplacer/Copier1[2]', #215 ) ;
#153 = DIRECTION ( 'NONE',  ( -3.491481338843133355E-15, 1.224646799147353207E-16, -1.000000000000000000 ) ) ;
#154 = PERSON_AND_ORGANIZATION_ROLE ( 'classification_officer' ) ;
#155 = DIRECTION ( 'NONE',  ( 4.275831445896958607E-31, 1.000000000000000000, 1.224646799147353207E-16 ) ) ;
#156 = LOCAL_TIME ( 13, 57, 9.000000000000000000, #239 ) ;
#157 = DIRECTION ( 'NONE',  ( 4.275831445896958607E-31, 1.000000000000000000, 1.224646799147353207E-16 ) ) ;
#158 = ADVANCED_FACE ( 'NONE', ( #214 ), #7, .T. ) ;
#159 = FACE_BOUND ( 'NONE', #42, .T. ) ;
#160 = AXIS2_PLACEMENT_3D ( 'NONE', #70, #194, #119 ) ;
#161 = APPROVAL_ROLE ( '' ) ;
#162 = CALENDAR_DATE ( 2021, 2, 12 ) ;
#163 = EDGE_LOOP ( 'NONE', ( #62 ) ) ;
#164 = ORIENTED_EDGE ( 'NONE', *, *, #72, .F. ) ;
#165 = PERSON_AND_ORGANIZATION ( #231, #14 ) ;
#166 = EDGE_LOOP ( 'NONE', ( #164 ) ) ;
#167 = AXIS2_PLACEMENT_3D ( 'NONE', #229, #153, #47 ) ;
#168 = CARTESIAN_POINT ( 'NONE',  ( 4.531457010211137579E-14, -1.589421160952747239E-15, 12.97860870627648744 ) ) ;
#169 = CYLINDRICAL_SURFACE ( 'NONE', #2, 2.565000000000035030 ) ;
#170 = FACE_OUTER_BOUND ( 'NONE', #130, .T. ) ;
#171 = APPLICATION_CONTEXT ( 'configuration controlled 3d designs of mechanical parts and assemblies' ) ;
#172 = AXIS2_PLACEMENT_3D ( 'NONE', #191, #26, #30 ) ;
#173 = FACE_OUTER_BOUND ( 'NONE', #242, .T. ) ;
#174 = CARTESIAN_POINT ( 'NONE',  ( -9.257175080367059918E-31, 3.246979929462972244E-32, -2.651360320154060785E-16 ) ) ;
#175 = CIRCLE ( 'NONE', #74, 1.999999999999992228 ) ;
#176 = CARTESIAN_POINT ( 'NONE',  ( 2.793185071074506684E-13, 1.599999999999991207, 80.00000000000000000 ) ) ;
#177 = CC_DESIGN_PERSON_AND_ORGANIZATION_ASSIGNMENT ( #111, #37, ( #114 ) ) ;
#178 = PERSON_AND_ORGANIZATION ( #231, #14 ) ;
#179 = LOCAL_TIME ( 13, 57, 9.000000000000000000, #112 ) ;
#180 = CALENDAR_DATE ( 2021, 2, 12 ) ;
#181 = DATE_TIME_ROLE ( 'creation_date' ) ;
#182 = ORIENTED_EDGE ( 'NONE', *, *, #225, .T. ) ;
#183 = ORIENTED_EDGE ( 'NONE', *, *, #216, .F. ) ;
#184 = AXIS2_PLACEMENT_3D ( 'NONE', #50, #52, #157 ) ;
#185 = SECURITY_CLASSIFICATION_LEVEL ( 'unclassified' ) ;
#186 = PERSON_AND_ORGANIZATION_ROLE ( 'design_supplier' ) ;
#187 = ADVANCED_FACE ( 'NONE', ( #121, #159 ), #198, .T. ) ;
#188 = DATE_AND_TIME ( #224, #25 ) ;
#189 = DIRECTION ( 'NONE',  ( 0.0000000000000000000, 1.000000000000000000, 0.0000000000000000000 ) ) ;
#190 = CC_DESIGN_SECURITY_CLASSIFICATION ( #60, ( #211 ) ) ;
#191 = CARTESIAN_POINT ( 'NONE',  ( 4.189777606611760026E-14, 1.923441921263857096E-32, 12.00000000000000000 ) ) ;
#192 = DIRECTION ( 'NONE',  ( 0.0000000000000000000, 1.000000000000000000, 0.0000000000000000000 ) ) ;
#193 = UNCERTAINTY_MEASURE_WITH_UNIT (LENGTH_MEASURE( 1.000000000000000082E-05 ), #241, 'distance_accuracy_value', 'NONE');
#194 = DIRECTION ( 'NONE',  ( -3.491481338843133355E-15, 1.224646799147353207E-16, -1.000000000000000000 ) ) ;
#195 = CIRCLE ( 'NONE', #41, 1.600000000000000977 ) ;
#196 = FACE_OUTER_BOUND ( 'NONE', #204, .T. ) ;
#197 = DATE_AND_TIME ( #180, #179 ) ;
#198 = CONICAL_SURFACE ( 'NONE', #238, 2.165000000000033786, 0.7853981633974502774 ) ;
#199 = ADVANCED_FACE ( 'NONE', ( #12 ), #24, .T. ) ;
#200 = COORDINATED_UNIVERSAL_TIME_OFFSET ( 1, 0, .AHEAD. ) ;
#201 = APPROVAL_PERSON_ORGANIZATION ( #137, #142, #108 ) ;
#202 = EDGE_CURVE ( 'NONE', #217, #217, #139, .T. ) ;
#203 = APPLICATION_PROTOCOL_DEFINITION ( 'international standard', 'config_control_design', 1994, #5 ) ;
#204 = EDGE_LOOP ( 'NONE', ( #98 ) ) ;
#205 = CC_DESIGN_APPROVAL ( #142, ( #90 ) ) ;
#206 = APPROVAL_STATUS ( 'not_yet_approved' ) ;
#207 = APPROVAL ( #206, 'UNSPECIFIED' ) ;
#208 = DIRECTION ( 'NONE',  ( 0.0000000000000000000, 1.000000000000000000, 0.0000000000000000000 ) ) ;
#209 = PERSON_AND_ORGANIZATION ( #231, #14 ) ;
#210 = FACE_OUTER_BOUND ( 'NONE', #166, .T. ) ;
#211 = PRODUCT_DEFINITION_FORMATION_WITH_SPECIFIED_SOURCE ( 'ANY', '', #114, .NOT_KNOWN. ) ;
#212 = DIRECTION ( 'NONE',  ( -3.491481338843133355E-15, 1.224646799147353207E-16, -1.000000000000000000 ) ) ;
#213 = PLANE ( 'NONE',  #172 ) ;
#214 = FACE_OUTER_BOUND ( 'NONE', #226, .T. ) ;
#215 = CLOSED_SHELL ( 'NONE', ( #54, #158, #199, #187 ) ) ;
#216 = EDGE_CURVE ( 'NONE', #140, #140, #29, .T. ) ;
#217 = VERTEX_POINT ( 'NONE', #16 ) ;
#218 = AXIS2_PLACEMENT_3D ( 'NONE', #51, #103, #155 ) ;
#219 = CARTESIAN_POINT ( 'NONE',  ( -9.257175080367059918E-31, 3.246979929462972244E-32, -2.651360320154060785E-16 ) ) ;
#220 = CARTESIAN_POINT ( 'NONE',  ( 2.793185071074506684E-13, -9.797174393178826052E-15, 80.00000000000000000 ) ) ;
#221 = CC_DESIGN_APPROVAL ( #94, ( #211 ) ) ;
#222 = CARTESIAN_POINT ( 'NONE',  ( 2.779219145719134403E-13, 1.999999999999991340, 79.60000000000000853 ) ) ;
#223 = ORIENTED_EDGE ( 'NONE', *, *, #116, .F. ) ;
#224 = CALENDAR_DATE ( 2021, 2, 12 ) ;
#225 = EDGE_CURVE ( 'NONE', #143, #143, #175, .T. ) ;
#226 = EDGE_LOOP ( 'NONE', ( #44 ) ) ;
#227 = DIRECTION ( 'NONE',  ( -3.491481338843133355E-15, 1.224646799147353207E-16, -1.000000000000000000 ) ) ;
#228 = CC_DESIGN_DATE_AND_TIME_ASSIGNMENT ( #63, #49, ( #60 ) ) ;
#229 = CARTESIAN_POINT ( 'NONE',  ( 2.793185071074506684E-13, -9.797174393178826052E-15, 80.00000000000000000 ) ) ;
#230 = DIRECTION ( 'NONE',  ( -3.491481338843133355E-15, 1.224646799147353207E-16, -1.000000000000000000 ) ) ;
#231 = PERSON ( 'UNSPECIFIED', 'UNSPECIFIED', 'UNSPECIFIED', ('UNSPECIFIED'), ('UNSPECIFIED'), ('UNSPECIFIED') ) ;
#232 = AXIS2_PLACEMENT_3D ( 'NONE', #219, #31, #145 ) ;
#233 = FACE_BOUND ( 'NONE', #163, .T. ) ;
#234 = DIRECTION ( 'NONE',  ( 4.275831445896958607E-31, 1.000000000000000000, 1.224646799147353207E-16 ) ) ;
#235 = CC_DESIGN_APPROVAL ( #207, ( #60 ) ) ;
#236 = EDGE_CURVE ( 'NONE', #35, #35, #55, .T. ) ;
#237 = CARTESIAN_POINT ( 'NONE',  ( 4.531457010211137579E-14, 1.999999999999990452, 12.97860870627648744 ) ) ;
#238 = AXIS2_PLACEMENT_3D ( 'NONE', #174, #117, #86 ) ;
#239 = COORDINATED_UNIVERSAL_TIME_OFFSET ( 1, 0, .AHEAD. ) ;
#240 = APPROVAL_DATE_TIME ( #141, #94 ) ;
#241 =( LENGTH_UNIT ( ) NAMED_UNIT ( * ) SI_UNIT ( .MILLI., .METRE. ) );
#242 = EDGE_LOOP ( 'NONE', ( #18 ) ) ;
#243 = APPROVAL_DATE_TIME ( #188, #207 ) ;
ENDSEC;
END-ISO-10303-21;
